Cifra Club

Aprenda

Counting on me

Korn

Tablatura: Principal (guitarra)
Tom: A
Intro: Guitar1
d|------------------------|---------------------|
a|------------------------|---------------------|
F|------------------------|---------------------|
C|------------------------|---------------------|
G|------------------------|---------------------|
D|------------------------|---------------------|
A|-6-XX-6-XX-6-XX-6X-6-8^-|-6-XX-6-XX-6-XX-6-XX-|


 Pre-verse: Guitar1 & Guitar2
d|-------------------------|
a|-------------------------|
F|-------------------------|
C|-------------------------|
G|---88---88---88--8-------|
D|---------------------10^-|
A|-6----6----6----6--6--8^-|

 Verse: Guitar1
d|------------------------|
A|------------------------|
F|------------------------|
C|------------------------|
G|------------------------|
D|-1-XX-1-XX-1-XX-1x-1-3^-|
A|------------------------|

  Guitar2
d|---------------------|
A|---------------------|
F|-4^---b4-4^--2--0----|
C|-------------------3~|        
G|---------------------|
D|---------------------|
A|---------------------|
 
 Pre-verse: Guitar1 & Guitar2
d|-------------------------|
a|-------------------------|
F|-------------------------|
C|-------------------------|
G|---88---88---88--8-------|
D|---------------------10^-|
A|-6----6----6----6--6- 8^-|

 Refrão: Guitar1 & Guitar2
d|---------------------------|
a|---------------------------|
F|---------------------------|
C|-3~~~6~-------6~~~8~----4~~|
G|-3~~~6~4~~~~~~6~~~8~6~~~4~~|
D|-1~~~4~4~~~~~~4~~~6~6~~~2~~|
A|-------2~~~~~~------4~~~---|

 Verse: Guitar1
d|------------------------|
A|------------------------|
F|------------------------|
C|------------------------|     
G|------------------------|
D|-1-XX-1-XX-1-XX-1x-1-3^-|
A|------------------------|

  Guitar2
d|---------------------|
A|---------------------|
F|-4^---b4-4^--2--0----|
C|-------------------3~|        
G|---------------------|
D|---------------------|
A|---------------------|

 Pre-verse: Guitar1 & Guitar2
d|-------------------------|
a|-------------------------|
F|-------------------------|
C|-------------------------|
G|---88---88---88--8-------|
D|---------------------10^-|
A|-6----6----6----6--6- 8^-|

 Refrão: Guitar1 & Guitar2
d|---------------------------|
a|---------------------------|
F|---------------------------|
C|-3~~~6~-------6~~~8~----4~~|
G|-3~~~6~4~~~~~~6~~~8~6~~~4~~|
D|-1~~~4~4~~~~~~4~~~6~6~~~2~~|
A|-------2~~~~~~------4~~~---|

 Bridge1: Guitar1
d|------------------|------------------|
A|------------------|------------------|
F|-------------7779-|-------------7776-|
C|-------------7779-|-------------7776-|        
G|------------------|------------------|
D|-1-----1--1-------|-1-----1--1-------|
A|------------------|------------------|

 Guitar2

d|---1-3-------1//3-|---1-3-------1//3-|
a|-------1~---------|-------1~---------|
F|------------------|------------------|
C|------------------|------------------|        
G|------------------|------------------|
D|-1--------1-------|-1---------1------|
A|------------------|------------------|

 Bridge2: Guitar2
d|-----------------------------|
a|-----------------------------|
F|-----------------------------|
C|-3~~~2~~~--------------------|        
G|-3~~~2~~~33-333433-33-333433-|
D|-1~~~0~~~33-333433-33-333433-|
A|---------11-111211-11-111211-|

 Guitar1
d|-----------------------------|
a|-----------------------------|
F|-5~~~4~~~--------------------|
C|-x~~~x~~~--------------------|        
G|-3~~~2~~~33-333433-33-333433-|
D|---------33-333433-33-333433-|
A|---------11-111211-11-111211-|

Fill1: Guitar2
d|---------|
A|---------|
F|---------|
C|-3~~~2~~~|    
G|-3~~~2~~~|
D|-1~~~0~~~|
A|---------|

 Guitar1
d|---------|
A|---------|
F|-5~~~4~~~|
C|-x~~~x~~~|    
G|-3~~~2~~~|
D|---------|
A|---------|

Bridge3: Guitar1 & Guitar2 
d|-----------|
a|-----------|
F|-----------|
C|-----------|
G|-3-3433343-|
D|-3-3433343-|
A|-1-1211121-|

Fill2: Guitar2
d|---------|
A|---------|
F|---------|
C|-3~~~2~~~|    
G|-3~~~2~~~|
D|-1~~~0~~~|
A|---------|

 Guitar1
d|---------|
A|---------|
F|-5~~~4~~~|
C|-x~~~x~~~|    
G|-3~~~2~~~|
D|---------|
A|---------|

 Pre-verse: Guitar1 & Guitar2
d|------------------------|
A|------------------------|
F|------------------------|
C|------------------------|
G|---33---33---33--3---5^-|
D|---------------------5^-|
A|-1----1----1----1--1-3^-|

 Chorus: Guitar1 & Guitar2
d|---------------------------|
a|---------------------------|
F|---------------------------|
C|-3~~~6~-------6~~~8~----4~~|
G|-3~~~6~4~~~~~~6~~~8~6~~~4~~|
D|-1~~~4~4~~~~~~4~~~6~6~~~2~~|
A|-------2~~~~~~------4~~~---|

 Outro: Guitar2
d|-16--16--15--15--16--16--15~---|-16--16--15--15--16--16---|
a|-18--18--16--16--18--18--16~16~|-18--18--16--16--18--1816~|
F|---17--17--17--17--17--17---17~|---17--17--17--17--17--17~|
C|-------------------------------|--------------------------|
G|-------------------------------|--------------------------|
D|-------------------------------|--------------------------|
A|-------------------------------|--------------------------|


Korn - Counting On Me

Why can't you ever back down?
Why can't you just shut your face?
Oh God, the feelings I feel
Would get me thrown in a cage

You're the one who's always screaming at me
I'm the one that keeps your life so carefree
What the fuck more do you want me to be?
Why must you do this to me?

Run away, I can't stay
Lead the way, make them pay

Counting on me
Always hoping I'll be
There for all of your problems
In turn you're never there for me
You sucked the life out of me
You hate everything you see
I can't take this anymore
I always stay when I should leave

You see the pain in my face
While you keep putting me down
Inside the rage starts to build
You push me I won't go down

You're the one who's always screaming at me
I'm the one that keeps your life so carefree
What the fuck more do you want me to be?
Why must you do this to me?

Run away, I can't stay
Lead the way, make them pay

Counting on me
Always hoping I'll be
There for all of your problems
In turn you're never there for me
You sucked the life out of me
You hate everything you see
I can't take this anymore
I always stay when I should leave

Could it really be the day, today?
Could this really make problems go away?
I'll have no bounds this time

Right now! I take in all I can now
Right Now! You've torn us all part
Right Now! There is nothing you can do to stop me

Right Now! Right Now! Right Now! Right Now!
Right Now! Right Now! Right Now! Right Now!

Counting on me
Always hoping I'll be
There for all of your problems
And in turn you're never there for me
You sucked the life out of me
You hate everything you see
I can't take this anymore
I always stay when I should leave

Counting on me
Always hoping I'll be
There for all of your problems
And in turn you're never there for me
You sucked the life out of me
You hate everything you see
I can't take this anymore
I always stay when I should leave
Compositor Korn
Colaboración y revision:
  • Renato Sylgom
75 reproducciones
    • ½ Tom
    • A
    • Bb
    • B
    • C
    • Db
    • D
    • Eb
    • E
    • F
    • F#
    • G
    • Ab
  • Adicionar à lista

    0 comentarios

    Mostrar mais comentários

    ¿Conseguiste tocar?

    0 Tocaron 0 Ainda não

    Grave um vídeo tocando Counting on me e mande pra gente!

    00:00 / 00:00
    outros vídeos desta música
    repetir qualidade Automático
    Outros vídeos desta música
    00:00 / 00:00
    Automático
    OK