Cifra Club

Earache My eye

Korn

Tablatura: Principal (guitarra)
Tom: A
-::faixa bonus::-

7 string tuned down whole step
Intro gtr.1
||--------------------------
||--------------------------
||------------------4-4-----
||--5-4--3--5-4--3--2-2--5--
||--4-3--2--4-3--2-------4--
||--------------------------
||--------------------------
  PM---------------------|
Intro gtr.2
||--------------------------------
||-15-14--13--15-14--13/18-18-15--
||-18-17--16--18-17--16/21-21-18--
||--------------------------------
||--------------------------------
||--------------------------------
||--------------------------------
Fill 1 gtr.1
||---------------------------
||---------------------------
||------------------4-4------
||--5-4--3--5-4--3--2-2------
||--4-3--2--4-3--2-----------
||---------------------------
||---------------------------
  PM--------------------|
Fill 1 gtr.2
||--------------------------------
||-15-14--13--15-14--13/18-18-----
||-18-17--16--18-17--16/21-21-----
||--------------------------------
||--------------------------------
||--------------------------------
||--------------------------------
Chorus gtrs.1 & 2
||--------------------------
||--------------------------
||--------------------------
||------------------2-2-----
||--4-3--2--4-3--2--2-2--4--
||--4-3--2--4-3--2--0-0--4--
||--2-1--0--2-1--0-------2--
Fill 2 w/octaver-doubles an octave lower
||---------------------------------------------|-----------------13-
||--13\12-x-x-------------12\11-x-x------------|-----------------17-
||--16\15-x-x--12\11-x-x--15\14-x-x--11\10-x-x-|--10/11-12-12-------
||-------------16\15-x-x-------------15\14-x-x-|--14/15-16-16-------
||---------------------------------------------|--------------------
||---------------------------------------------|--------------------
||---------------------------------------------|--------------------
Verse gtr.1 & 2
||--------------------------
||--------------------------
||--------------------------
||------------------2-2--5--
||--4-3--2--4-3--2--2-2--4--
||--4-3--2--4-3--2--0-0--4--
||--2-1--0--2-1--0-------2--
                         ^-flanger on this chord
Riff 6
||---------------------------
||---------------------------
||---------------------------
||-------------------6-6-----
||--7-6--5--7-6--5--------7--
||---------------------------
||---------------------------
Guitar solo  tremolo picking all chords
||----------------|-------------------|------------------|----------------
||--9---------10--|-(10)--9------/15--|-(15)-\-9-----10--|-(10)--9----/15-
||-12---------13--|-(13)-12------/18--|-(18)-\12-----13--|-(13)-12----/18-
||----------------|-------------------|------------------|----------------
||----------------|-------------------|------------------|----------------
||----------------|-------------------|------------------|----------------
||----------------|-------------------|------------------|----------------
Freely band out gtr.1 rock whammy wah back and forth  tremolo picking
||--------------|--------------|--------------|-------------|-------------
||---9------10--|---9-------10-|---9-------10-|---9------10-|-(10)--------
||--12------13--|--12-------13-|--12-------13-|--12------13-|-(13)--------
||--------------|--------------|--------------|-------------|-------------
||--------------|--------------|--------------|-------------|-------------
||--------------|--------------|--------------|-------------|-------------
||--------------|--------------|--------------|-------------|-------------
Gtr.2
||---------------|------------------------------|-------------------------
||---------------|------------------------------|-------------------------
||---------------|------------------------------|-------------------------
||---------------|------------------------------|-------------------------
||---------------|------------------------------|-------------------------
||-------------0-|------------------0-----------|-------------------------
||--2-1--0--2----|--0-2-2-0-0-2-2-2---0-0-2-2-2-|--2----------------------
Gtr.2 continued
||---------------------------------------------|--------------------------
||---------------------------------------------|--------------------------
||-------------------------------9--9--9^--(9)-|-------------------9-9--9-
||--12-11-11-11h10p9--12-11h10p9-------11--(11)|-12-11--9-12-11--9-----11-
||---------------------------------------------|--------------------------
||---------------------------------------------|--------------------------
||---------------------------------------------|--------------------------
Riff 10
||-------------------------|-----------------------|----------------------
||-------------------------|-----------------------|----------------------
||-------------------------|---------------------0-|-0------0----------6--
||-----------------2-2-----|-----------------2-2-x-|-x------x------2-2-x--
||--4-3--2--4-3--2-2-2--4--|--4-3--2--4-3--2-2-2-4-|-4-3--2-4-3--2-2-2-4--
||--4-3--2--4-3--2-0-0--4--|--4-3--2--4-3--2-0-0-4-|-4-3--2-4-3--2-0-0----
||--2-1--0--2-1--0------2--|--2-1--0--2-1--0-----2-|-2-1--0-2-1--0--------
Riff 10 continued
||---------------------10--
||-------------------------
||-------------------------
||-----------------2-2-----
||--4-3--2--4-3--2-2-2-----
||--4-3--2--4-3--2-0-0-----
||--2-1--0--2-1--0---------
                       ^-w/whammy wah on this note preset 13
Fill 3
||--------------------
||--------------------
||--------------------
||-------------5------
||--------4-----------
||---5----------------
||----------------------------------------------------------------------------------

Intro riff.guitar 1
d||--------------------------------||
a||--------------------------------||
F||--------------------------------||
C||--------------------------------||
G||--------------------------------||
D||--------------------------------||
A||--3--2--0---3--2--0---5--5---2--|| 5x
   pm............................|
Intro riff. guitar2
d||--15-14-12--15-14-12--17-17--14--||
a||---------------------------------||
F||---------------------------------||
C||---------------------------------||
G||---------------------------------||
D||---------------------------------||
A||---------------------------------|| 3x
Main riff
    C  B  A   C  B  A   D   D  B
d||--------------------------------||
a||--------------------------------||
F||--------------------------------||
C||--------------------------------||
G||--5--4--2---5--4--2---7---7--4--||
D||--5--4--2---5--4--2---0---0--4--||
A||--3--2--0---3--2--0---5---5--2--||
reproducciones 31
Acordes para:
    Composição: Cheech Marin / Tommy Chong Colaboración y revision:
    • leandro

    0 comentarios

    mostrar más comentarios

    ¿Conseguiste tocar?

    0 tocaron 0 aún no

    ¡Graba un vídeo tocando Earache My eye y envianoslo!

    00:00 / 00:00
    outros vídeos desta música
    repetir qualidade Automático
    Outros vídeos desta música
    00:00 / 00:00
    Automático
    OK