Cifra Club

Aprenda

Ever Be

Korn

Tablatura: Principal (guitarra)
Tom: D
    Intro (Guitar2)
d||----------------|---------------|   
a||----------------|---------------|   
F||----------------|---------------|   
C||----------------|---------------|    
G||---7~~~-10\5----|---5~~~-8\3----|
D||---7~~~-10\5----|---5~~~-8\3----|   
A||---5~~~--8\3----|---3~~~-6\1----| 4x

  Guitar1
d|------------------------------------------|
A|------------------------------------------|
F|-9999////////////21212121\\\\\\\8x8x8x8x8x|
C|------------------------------------------|
G|------------------------------------------|
D|------------------------------------------|
A|------------------------------------------|

   Riff1 (Guitar2)
d||-------------|---------------|
a||-------------|---------------|
F||-------------|---------------|
C||-------------|---------------|
G||---7~~~~10---|---5~~~~8------|
D||---7~~~~10---|---5~~~~8------|
A||---5~~~~-8---|---3~~~~6------| 8x


   Riff1 (Guitar1)
d||---------------------------------------------------------------------------|
a||---12121212121212121313131310101010-12121212121212121313131312-------------|
F||--------------------------------------------------------------111111119999-|
C||---------------------------------------------------------------------------|
G||---------------------------------------------------------------------------|
D||---------------------------------------------------------------------------|
A||---------------------------------------------------------------------------| 4x 


   Chorus(Guitar1)                                             F5   G5   A5   C5
d||---------------------------------------------------------------------------------|
a||---------------------------------------------------------------------------------|
F||---------------------------------------------------------------------------------|
C||------------------------------------------------------------5~~~-7~~~-9~~~-12~~~-|
G||-----9-7-9---9-7---9-7-9---9-7---9-7-9---9-7---9-7-9---9-7--5~~~-7~~~-9~~~-12~~~-|                              
D||---7-7-5-7-7-7-5-7-7-5-7-7-7-5-7-7-5-7-7-7-5-7-7-5-7-7-7-5--3~~~-5~~~-7~~~-10~~~-|
A||---5-------5-----5-------5-----5-------5-----5-------5---------------------------| 

                                    F5   G5   A5   C5    D5
d||----------------------------------------------------------------|
a||----------------------------------------------------------------|
F||----------------------------------------------------------------|
C||---------------------------------5~~~-7~~~-9~~~-12~~~-----------|
G||-----9-7-9---9-7---9-7-9---9-7---5~~~-7~~~-9~~~-12~~~-7~~~~~~~~-|                              
D||---7-7-5-7-7-7-5-7-7-5-7-7-7-5---3~~~-5~~~-7~~~-10~~~-7~~~~~~~~-|
A||---5-------5-----5-------5----------------------------5~~~~~~~~-| 
 

   Guitar2                                            
d||-----------------------------------------------------------|
a||-----------------------------------------------------------|
F||-----------------------------------------------------------|
C||-----------------------------------------------------------|
G||-----9-7-9---9-7---9-7-9---9-7---9-7-9---9-7---9-7-9---9-7-|                              
D||---7-7-5-7-7-7-5-7-7-5-7-7-7-5-7-7-5-7-7-7-5-7-7-5-7-7-7-5-|
A||---5-------5-----5-------5-----5-------5-----5-------5-----| 

d|----------------------------------|
A|----------------------------------|
F|-12121212141414141616161619192121-|
C|-xxxxxxxxxxxxxxxxxxxxxxxxxxxxxxxx-|
G|-10101010121212121414141417171919-|
D|----------------------------------|
A|----------------------------------|

d||--------------------------------|
a||--------------------------------|
F||--------------------------------|
C||--------------------------------|
G||-----9-7-9---9-7---9-7-9---9-7--|                              
D||---7-7-5-7-7-7-5-7-7-5-7-7-7-5--|
A||---5-------5-----5-------5------| 

d|----------------------------------|
A|----------------------------------|
F|-12121212141414141616161619192121-|
C|-xxxxxxxxxxxxxxxxxxxxxxxxxxxxxxxx-|
G|-10101010121212121414141417171919-|
D|----------------------------------|
A|----------------------------------|


   Riff1 (Guitar2)
d||-------------|---------------|
a||-------------|---------------|
F||-------------|---------------|
C||-------------|---------------|
G||---7~~~~10---|---5~~~~8------|
D||---7~~~~10---|---5~~~~8------|
A||---5~~~~-8---|---3~~~~6------|  4x


   Riff1 (Guitar1)
d||---------------------------------------------------------------------------|
a||---12121212121212121313131310101010-12121212121212121313131312-------------|
F||--------------------------------------------------------------111111119999-|
C||---------------------------------------------------------------------------|
G||---------------------------------------------------------------------------|
D||---------------------------------------------------------------------------|
A||---------------------------------------------------------------------------| 2x 


  Chorus(Guitar1)                                              F5   G5   A5   C5
d||---------------------------------------------------------------------------------|
a||---------------------------------------------------------------------------------|
F||---------------------------------------------------------------------------------|
C||------------------------------------------------------------5~~~-7~~~-9~~~-12~~~-|
G||-----9-7-9---9-7---9-7-9---9-7---9-7-9---9-7---9-7-9---9-7--5~~~-7~~~-9~~~-12~~~-|                              
D||---7-7-5-7-7-7-5-7-7-5-7-7-7-5-7-7-5-7-7-7-5-7-7-5-7-7-7-5--3~~~-5~~~-7~~~-10~~~-|
A||---5-------5-----5-------5-----5-------5-----5-------5---------------------------| 

                                     F5   G5   A5    C5    D5
d||-------------------------------||---------------------------------|
a||-------------------------------||---------------------------------|
F||-------------------------------||---------------------------------|
C||-------------------------------||--5~~~-7~~~-9~~~-12~~~-----------|
G||-----9-7-9---9-7---9-7-9---9-7-||--5~~~-7~~~-9~~~-12~~~-7~~~~~~~~-|                              
D||---7-7-5-7-7-7-5-7-7-5-7-7-7-5-||--3~~~-5~~~-7~~~-10~~~-7~~~~~~~~-|
A||---5-------5-----5-------5-----||-----------------------5~~~~~~~~-| 4x


   Guitar2                                            
d||-----------------------------------------------------------|
a||-----------------------------------------------------------|
F||-----------------------------------------------------------|
C||-----------------------------------------------------------|
G||-----9-7-9---9-7---9-7-9---9-7---9-7-9---9-7---9-7-9---9-7-|                              
D||---7-7-5-7-7-7-5-7-7-5-7-7-7-5-7-7-5-7-7-7-5-7-7-5-7-7-7-5-|
A||---5-------5-----5-------5-----5-------5-----5-------5-----| 

d|----------------------------------|
A|----------------------------------|
F|-12121212141414141616161619192121-|
C|-xxxxxxxxxxxxxxxxxxxxxxxxxxxxxxxx-|
G|-10101010121212121414141417171919-|
D|----------------------------------|
A|----------------------------------|

d||--------------------------------|
a||--------------------------------|
F||--------------------------------|
C||--------------------------------|
G||-----9-7-9---9-7---9-7-9---9-7--|                              
D||---7-7-5-7-7-7-5-7-7-5-7-7-7-5--|
A||---5-------5-----5-------5------| 

d|----------------------------------|
A|----------------------------------|
F|-12121212141414141616161619192121-|
C|-xxxxxxxxxxxxxxxxxxxxxxxxxxxxxxxx-|
G|-10101010121212121414141417171919-|
D|----------------------------------|
A|----------------------------------|

d|--------------------|
A|--------------------|
F|-161616161616161616-|
C|-xxxxxxxxxxxxxxxxxx-|
G|-141414141414141414-|
D|--------------------|
A|--------------------|

  Interlude
d|-------------------------------------------------|
a|-------------------------------------------------|
F|-------------------------------------------------|
C|-------------------------------------------------|
G|-------------------------------------------------|
D|-6-7-6-5-6-5-4-5-4-3-4-3-8-9-8-7-8-7-6-7-6-5-6-5-|
A|-4-5-4-3-4-3-2-3-2-1-2-1-6-7-6-5-6-5-4-5-4-3-4-3-|

d|--------------------------------------------------|
a|--------------------------------------------------|
F|--------------------------------------------------|
C|--------------------------------------------------|
G|--------------------------------------------3~~~~-|
D|-101110-910-9-8-9-8-7-8-7-6-7-6-5-6-5-4-5-4-3~~~~-|
A|--8-9-8-7-8-7-6-7-6-5-6-5-4-5-4-3-4-3-2-3-2-1~~~~-|

d|-------------------------------------------------|
a|-------------------------------------------------|
F|-------------------------------------------------|
C|-------------------------------------------------|
G|-6-7-6-5-6-5-4-5-4-3-4-3-8-9-8-7-8-7-6-7-6-5-6-5-|
D|-6-7-6-5-6-5-4-5-4-3-4-3-8-9-8-7-8-7-6-7-6-5-6-5-|
A|-4-5-4-3-4-3-2-3-2-1-2-1-6-7-6-5-6-5-4-5-4-3-4-3-|

d|-----------------------------------------------------|
a|-----------------------------------------------------|
F|-----------------------------------------------------|
C|-----------------------------------------------------|
G|-10-11-10-9-10-9-8-9-8-7-8-7-6-7-6-5-6-5-4-5-4-3~~~~-|
D|-10-11-10-9-10-9-8-9-8-7-8-7-6-7-6-5-6-5-4-5-4-3~~~~-|
A|--8--9--8-7--8-7-6-7-6-5-6-5-4-5-4-3-4-3-2-3-2-1~~~~-|


   Bridge
d||---------------------------|
a||---------------------------|
F||---------------------------|
C||-14141414--9999--10101010--|
G||-14141414--9999--10101010--|
D||-12121212--7777---8-8-8-8--|
A||---------------------------| 2x


   Chorus(Guitar1)                                             F5   G5   A5   C5
d||---------------------------------------------------------------------------------|
a||---------------------------------------------------------------------------------|
F||---------------------------------------------------------------------------------|
C||------------------------------------------------------------5~~~-7~~~-9~~~-12~~~-|
G||-----9-7-9---9-7---9-7-9---9-7---9-7-9---9-7---9-7-9---9-7--5~~~-7~~~-9~~~-12~~~-|                              
D||---7-7-5-7-7-7-5-7-7-5-7-7-7-5-7-7-5-7-7-7-5-7-7-5-7-7-7-5--3~~~-5~~~-7~~~-10~~~-|
A||---5-------5-----5-------5-----5-------5-----5-------5---------------------------| 

                                    F5   G5   A5   C5    D5
d||----------------------------------------------------------------|
a||----------------------------------------------------------------|
F||----------------------------------------------------------------|
C||---------------------------------5~~~-7~~~-9~~~-12~~~-----------|
G||-----9-7-9---9-7---9-7-9---9-7---5~~~-7~~~-9~~~-12~~~-7~~~~~~~~-|                              
D||---7-7-5-7-7-7-5-7-7-5-7-7-7-5---3~~~-5~~~-7~~~-10~~~-7~~~~~~~~-|
A||---5-------5-----5-------5----------------------------5~~~~~~~~-| 
 

   Guitar2                                            
d||-----------------------------------------------------------|
a||-----------------------------------------------------------|
F||-----------------------------------------------------------|
C||-----------------------------------------------------------|
G||-----9-7-9---9-7---9-7-9---9-7---9-7-9---9-7---9-7-9---9-7-|                              
D||---7-7-5-7-7-7-5-7-7-5-7-7-7-5-7-7-5-7-7-7-5-7-7-5-7-7-7-5-|
A||---5-------5-----5-------5-----5-------5-----5-------5-----| 

d|----------------------------------|
A|----------------------------------|
F|-12121212141414141616161619192121-|
C|-xxxxxxxxxxxxxxxxxxxxxxxxxxxxxxxx-|
G|-10101010121212121414141417171919-|
D|----------------------------------|
A|----------------------------------|

d||--------------------------------|
a||--------------------------------|
F||--------------------------------|
C||--------------------------------|
G||-----9-7-9---9-7---9-7-9---9-7--|                              
D||---7-7-5-7-7-7-5-7-7-5-7-7-7-5--|
A||---5-------5-----5-------5------| 

d|----------------------------------|
A|----------------------------------|
F|-12121212141414141616161619192121-|
C|-xxxxxxxxxxxxxxxxxxxxxxxxxxxxxxxx-|
G|-10101010121212121414141417171919-|
D|----------------------------------|
A|----------------------------------|


   Final (Guitar1)
d||-----------------------------------------|
a||-----------------------------------------|
F||---9h7-9-9h11-9-11h12-11-14-12-11--------|
C||-----------------------------------------|
G||-----------------------------------------|
D||-----------------------------------------|
A||-----------------------------------------| 8x

   (Guitar2)
d||----------------------------------|
a||----------------------------------|
F||----------------------------------|
C||----------------------------------|
G||---7-7-7-9-9-9-10-10-10-12-12-12--|
D||---7-7-7-9-9-9-10-10-10-12-12-12--|
A||---5-5-5-7-7-7--8--8--8-10-10-10--| 6x


d||----------------------------------|    |-----|
a||----------------------------------|    |-----|
F||----------------------------------|    |-----|
C||----------------------------------|    |-----|
G||---7-7-7-9-9-9-10-10-10--12-10-9--|    |--7--| 
D||---7-7-7-9-9-9-10-10-10--12-10-9--|    |--7--|
A||---5-5-5-7-7-7--8--8--8--10--8-7--| 7x |--5--|



Ever Be

You're the infection, my friend
Disgusting right to the end
Didn't I know it then?
I knew it, I knew it

You're basic but hard to define
Simple yet somehow sublime
Know you will strike again
I knew it, I knew it

You're all that's wrong
With your dumbass songs
Yes, that's all that you will ever be
Nothing you can do 'cause
That's all that you will ever be

Polished, you shimmer when shined
But rotten and seething inside
Everyone falls for this
I knew it, I knew it

You're all that's wrong
With your dumbass songs
Yes, that's all that you will ever be
Nothing you can do 'cause
That's all that you will..
That's all that you will..
That's all that you will ever be

Ever be, never be, want to be God
Ought to be, need to be, holding the song
Throwing it, breaking it, all by your grave
Sending you back to the place you once came

It must be hard to be you
No one around you
You're all that's wrong
With your dumbass songs
Yes, that's all that you will ever be
Nothing you can do 'cause
That's all that you will ever be

(Never be.. never be.. never be.. Wanna be..)

You will never be!
You will never be!
You will never be!

You wanna be God!
You wanna be God!
You wanna be God!

It's all gone!
It's all gone!
It's all gone!
It's all gone..
Compositor Korn / Terry Bozzio / Zac Baird
Colaboración y revision:
  • Renato Sylgom
41 reproducciones
    • ½ Tom
    • A
    • Bb
    • B
    • C
    • Db
    • D
    • Eb
    • E
    • F
    • F#
    • G
    • Ab
  • Adicionar à lista

    0 comentarios

    Mostrar mais comentários

    ¿Conseguiste tocar?

    1 Tocaron 0 Ainda não

    Grave um vídeo tocando Ever Be e mande pra gente!

    00:00 / 00:00
    outros vídeos desta música
    repetir qualidade Automático
    Outros vídeos desta música
    00:00 / 00:00
    Automático
    OK