Cifra Club

Everything Ive Known

Korn

Cifrado: Principal (guitarra y guitarra eléctrica)
tono: Db
Instrument: guitar  7 string


        Intro           ~listen for timeing~

d------------------------------------------|
a------------------------------------------|
f--------------------------------------2---|
c----2-3------2-0---------2-3-0-----0------|
g------------------------------------------|
d------------------------------------------|
a-3-------3----------0-3-------------------|

        Chorus          ~listen for timeing~

d----------------------------------------------------|
a----------------------------------------------------|
f----------------------------------------------------|
c----------------------------------------------------|
g-5------5-5-5-6\\3--5-----5-5-5-6\\3-5--------------|
d-x--2---x-x-x-x\\x--x--2--x-x-x-x\\x-x-2------------|
a-3--0---3-3-3-4\\1--3--0--3-3-3-4\\1-3-0------------|

        Pre-Chorus      ~listen for timeing~

d------------------------|
a------------------------|
f------------------------|
c-------2----3----5------|
g-5-----2----3----5------|
d-5-----0----1----3------|
a-3----------------------|

        Bridge          ~listen for timeing~

d---------------------------------------------------------------------------------------|
a---------------------------------------------------------------------------------------|
f---------------------------------------------------------------------------------------|
c---------------------------------------------------------------------------------------|
g-5-6-5-----5-6-5-----5-6-5-6-5-----5-6-5-----5-6-5-----5-6-5-6-5------then------5-4-3--|
d-5-6-5-----5-6-5-----5-6-3-6-5-----5-6-5-----5-6-5-----5-6-3-6-5----------------5-4-3--|
a-3-4-3-----3-4-3-----3-4-1-4-3-----3-4-3-----3-4-3-----3-4-1-4-3----------------3-2-1--|
Composición de Korn
Colaboración y revisión:
  • Thiago Leal
47 vistas
    • ½ Tono
    • A
    • Bb
    • B
    • C
    • Db
    • D
    • Eb
    • E
    • F
    • F#
    • G
    • Ab
  • Agregar a la lista

    0 comentarios

    Ver todos los comentarios

    ¿Lograste tocar?

    0 Tocaron 0 Aún no

    ¡Graba un video tocando Everything Ive Known y envíanoslo!

    00:00 / 00:00
    Outros vídeos desta música
    Repetir Calidad Automático
    Outros vídeos desta música
    00:00 / 00:00
    Automático
    OK