Cifra Club

Good God

KoRn

Cifrado: Principal (guitarra y guitarra eléctrica)
Selo Cifra Club: esta cifra foi revisada para atender aos critérios oficiais da nossa Equipe de Qualidade.
tono: G
Se voce quiser tocar junto com a música use a afinaçao drop C (CGCFAD). 
Mas afinado em Ré drop D (DADGBE) tambem funciona bem

Riff 1
D||------16------16--------16------16---------16-----16--------15-----16
A||---------------------------------------------------------------------
F||---------------------------------------------------------------------
C||---------------------------------------------------------------------
G||--5-4----4-4----5-4-5-4----4-4----5-4-5-4----4-4----5-4-5-4----4-4---
C||--5-4----4-4----5-4-5-4----4-4----5-4-5-4----4-4----5-4-5-4----4-4---

D||----------16-----16---------16-----16---------16-----16---------16---
A||---------------------------------------------------------------------
F||---------------------------------------------------------------------
C||---------------------------------------------------------------------
G||--5-4-5-4----4-4----5-4-5-4----4-4----5-4-5-4----4-4----5-4-5-4------
C||--5-4-5-4----4-4----5-4-5-4----4-4----5-4-5-4----4-4----5-4-5-4------

D||------16------||
A||--------------||
F||--------------||
C||--------------||
G||--4-4----5-4--||
C||--4-4----5-4--||


Riff 2 

P.M.----      P.M.       P.M.     P.M.

D||-------------------------------------------||
A||-------8-7-------7---------8-7------7------||
F||-------------------7------------------7----||
C||----------------------------------------7--||
G||--5-4------5-4--------5-4------5-4---------||
C||--5-4------5-4--------5-4------5-4---------||

         N.H.       N.H       N.H      N.H.-
                    (3x)


Riff 3
D||------16------16--------16------16---------16-----16--------16-----16
A||---------------------------------------------------------------------
F||---------------------------------------------------------------------
C||---------------------------------------------------------------------
G||--5-4----4-4----5-4-5-4----4-4----5-4-5-4----4-4----5-4-5-4----4-4---
C||--5-4----4-4----5-4-5-4----4-4----5-4-5-4----4-4----5-4-5-4----4-4---

D||-------||
A||-------||
F||-------||
C||-------||
G||--5-4--||
C||--5-4--||


Riff 4A (guitar 1, Head)
D||-----------------||
A||-----------------||   
F||-----------------||
C||-----------------|| 
G||--9----7--6-5-4--||
C||--9----7--6-5-4--||
        (4X)

Riff 4B (guitar 2, Munky) 
D||-----------||------------------------------||
A||-----------||------------------------------||
F||-----------||--15---12-12---12/15---15/17--||
C||--7^(1/2)--||------------------------------|| 
G||-----------||------------------------------||
C||-----------||------------------------------||
      (3X)


Riff 5 
D||--------------------||
A||--------------------||   
F||--------------------||
C||--------------------|| 
G||--10-9----7--6-5-4--||
C||--10-9----7--6-5-4--||
           (4X)


Riff 6
D||--------------||--------------------||-------||
A||--------------||--------------------||-------||
F||--------------||--------------------||-------||
C||--------------||--------------------||-------||
G||--5-4--44-44--||--5-4-5-4-X--44-44--||--5-4--||
C||--5-4--44-44--||--5-4-5-4-X--44-44--||--5-4--||
                          (7X)


Riff 7
D||--------------------||-------------||
A||--------------------||-------------||   
F||--------------------||-------------||
C||--------------------||-------------|| 
G||--10-9----7--6-5-4--||--10-9----7--||
C||--10-9----7--6-5-4--||--10-9----7--||
           (3X)
Otros videos de esta canción
    6.636 exhibiciones
      • ½ Tono
      • A
      • Bb
      • B
      • C
      • Db
      • D
      • Eb
      • E
      • F
      • F#
      • G
      • Ab
    • Agregar a la lista

    Afinación de cifrado

    Afinador online

      OK