Cifra Club

Hater

Korn

Tablatura: Principal (guitarra)
Tom: G
Afinação:
E B G D A D


Intro
Guitarra I
E|---------------------------------------------------------------------|
B|---------------------------------------------------------------------|
G|---------------------------------------------------------------------|
D|----0-0--0-0-0--0-10-10--10-10-10--10-8-8--8-8-8--8-5-5--5-5-5--5----|  x2
A|----0-0--0-0-0--0-10-10--10-10-10--10-8-8--8-8-8--8-5-5--5-5-5--5----|
D|----0-0--0-0-0--0-10-10--10-10-10--10-8-8--8-8-8--8-5-5--5-5-5--5----|

Guitarra II
E|------------------|
B|-------5h6--------|
G|----7--------7----|
D|------------------|  x2
A|------------------|
D|------------------|

Refrão
Guitarra I
E|----------------------------------------|
B|----------------------------------------|
G|----------------------------------------|
D|----0-0-xx-2-3-0-xx-0-0-0-xx-2-3-0-x----|  x2
A|----0-0-xx-2-3-0-xx-0-0-0-xx-2-3-0-x----|
D|----0-0-xx-2-3-0-xx-0-0-0-xx-2-3-0-x----|

Verso
E|-----------|
B|-----------|
G|-----------|
D|----0-0----|  x4
A|----0-0----|
D|----0-0----|

Guitarra I
E|---------------------------------------------------------------------|
B|---------------------------------------------------------------------|
G|---------------------------------------------------------------------|
D|----0-0--0-0-0--0-10-10--10-10-10--10-8-8--8-8-8--8-5-5--5-5-5--5----|  x2
A|----0-0--0-0-0--0-10-10--10-10-10--10-8-8--8-8-8--8-5-5--5-5-5--5----|
D|----0-0--0-0-0--0-10-10--10-10-10--10-8-8--8-8-8--8-5-5--5-5-5--5----|

Guitarra II
E|-----------------------------------------------|
B|------------------------(11)-(10)--------------|
G|----(9h10)-(7)--9h10p7------------(10)---------|
D|---------------------------------------(12)----| x2
A|-----------------------------------------------|
D|-----------------------------------------------|



Ponte
E|--------------------------------------|
B|--------------------------------------|
G|--------------------------------------|
D|----0~~~~8~~7~~0~~~~8~~7~~10~~~~10~~~~|
A|----0~~~~8~~7~~0~~~~8~~7~~10~~~~10~~~~|
D|----0~~~~8~~7~~0~~~~8~~7~~10~~~~10~~~~|

Guitarra I
E|---------------------------------------------------------------------|
B|---------------------------------------------------------------------|
G|---------------------------------------------------------------------|
D|----0-0--0-0-0--0-10-10--10-10-10--10-8-8--8-8-8--8-5-5--5-5-5--5----|  x4
A|----0-0--0-0-0--0-10-10--10-10-10--10-8-8--8-8-8--8-5-5--5-5-5--5----|
D|----0-0--0-0-0--0-10-10--10-10-10--10-8-8--8-8-8--8-5-5--5-5-5--5----|

Guitarra II
E|--------------------------------------------|
B|----10-----------------------------11-11----|
G|--------10-12-9--(9)-10-7--9h10p7-----------|
D|--------------------------------------------| x4
A|--------------------------------------------|
D|--------------------------------------------|

Se for fazer acústico as cifras são:

D, C, A#, G
reproducciones 23
Acordes para:
    Colaboración y revision:
    • Ivair Junior

    0 comentarios

    mostrar más comentarios

    ¿Conseguiste tocar?

    0 tocaron 0 aún no

    ¡Graba un vídeo tocando Hater y envianoslo!

    00:00 / 00:00
    outros vídeos desta música
    repetir qualidade Automático
    Outros vídeos desta música
    00:00 / 00:00
    Automático
    OK