Cifra Club

Hating

Korn

Tablatura: Principal (guitarra)
Tom: E
 Intro:
d|-----------------------------------------------|
A|-----------------------------------------------|
F|-----------------------------------------------|
C|--------------------------7-7------------------|
G|-7-7-----9-9-----5-5-5----------7-9-10--9-9-9--|
D|-----------------------------------------------|
A|-----------------------------------------------|

d|--------------------------------------------------|
A|--------------------------------------------------|
F|--------------------------------------------------|
C|------------------------------7-7-----------------|
G|-----7-7-----9-9---5-5-5-----------7-9-10--9-9-9--|
D|-7------------------------------------------------|
A|--------------------------------------------------|

 Guitar2
d|----------------------------|
A|----------------------------|
F|--16---14---14---12---11----|
C|--xx---xx---xx---xx---xx----|
G|--14---12---12---10----9----|
D|----------------------------|
A|----------------------------|

 Pre-chorus: Guitar1
d|----------------|
a|----------------|
F|----------------|
C|--9--10---7-----|  
G|--9--10---7-----|
D|--7---8---5-----|
A|----------------|3x

d|-------------|
A|-------------|
F|-------------|
C|-9--10---12--| 
G|-9--10---12--|
D|-7---8---10--|
A|-------------|

 Pre-chorus: Guitar2 
d|----------------------|
a|--12-12-12-12-12-12---|
F|----------------------|
C|----------------------|
G|----------------------|
D|----------------------|
A|----------------------|

 Chorus: Guitar1
d|---------------|
a|---------------|
F|---------------|
C|--------5------| 
G|-7---3--5---5--|
D|-7---3--3---5--|
A|-5---1------3--|

d|------------------|
a|------------------|
F|------------------|
C|------------------|
G|-7----3---5----6--|
D|-7----3---5----6--|
A|-5----1---3----4--|

 Chorus: Guitar2
d|-----------------------------------------|
A|-----------------------------------------|
F|---9---11----------------12---11----9----|
C|---x----x----12-----9----xx---xx----x----|
G|---7----9----xx-----x----10----9----7----|
D|-------------10-----7--------------------|
A|-----------------------------------------|

d|------------------------------------|
A|------------------------------------|
F|---9---11----------------12---11----|
C|---x---xx----12-----9----xx---xx----|
G|---7----9----xx-----x----10----9----|
D|-------------10-----7---------------|
A|------------------------------------| 

 Verse: Guitar1
d|-----------------------------------------------|
A|-----------------------------------------------|
F|-----------------------------------------------|
C|--------------------------7-7------------------|
G|-7-7-----9-9-----5-5-5----------7-9-10--9-9-9--|
D|-----------------------------------------------|
A|-----------------------------------------------|

d|--------------------------------------------------|
A|--------------------------------------------------|
F|--------------------------------------------------|
C|------------------------------7-7-----------------|
G|-----7-7-----9-9---5-5-5-----------7-9-10--9-9-9--|
D|-7------------------------------------------------|
A|--------------------------------------------------|

 Guitar2
d|----------------------------|
A|----------------------------|
F|--16---14---14---12---11----|
C|--xx---xx---xx---xx---xx----|
G|--14---12---12---10----9----|
D|----------------------------|
A|----------------------------|

 Pre-chorus: Guitar1
d|----------------|
a|----------------|
F|----------------|
C|--9--10---7-----|  
G|--9--10---7-----|
D|--7---8---5-----|
A|----------------|3x

d|-------------|
A|-------------|
F|-------------|
C|-9--10---12--| 
G|-9--10---12--|
D|-7---8---10--|
A|-------------|

 Pre-chorus: Guitar2 
d|----------------------|
a|--12-12-12-12-12-12---|
F|----------------------|
C|----------------------|
G|----------------------|
D|----------------------|
A|----------------------|

 Chorus: Guitar1
d|---------------|
a|---------------|
F|---------------|
C|--------5------| 
G|-7---3--5---5--|
D|-7---3--3---5--|
A|-5---1------3--|

d|------------------|
a|------------------|
F|------------------|
C|------------------|
G|-7----3---5----6--|
D|-7----3---5----6--|
A|-5----1---3----4--|

 Chorus: Guitar2
d|-----------------------------------------|
A|-----------------------------------------|
F|---9---11----------------12---11----9----|
C|---x----x----12-----9----xx---xx----x----|
G|---7----9----xx-----x----10----9----7----|
D|-------------10-----7--------------------|
A|-----------------------------------------|

d|------------------------------------|
A|------------------------------------|
F|---9---11----------------12---11----|
C|---x---xx----12-----9----xx---xx----|
G|---7----9----xx-----x----10----9----|
D|-------------10-----7---------------|
A|------------------------------------| 

 Interlude 
d|-----------------|
a|-----------------|
F|-----------------|
C|-----------------|
G|-7-7-7-7-7-7-----|
D|-7-7-7-7-7-7-----|
A|-5-5-5-5-5-5-----|3x

d|-----------|
a|-----------|
F|-----------|
C|-----------|
G|-8-8-8-8---|
D|-8-8-8-8---|
A|-6-6-6-6---|

 Bridge1
d|------------------------------------|
a|-----0------0------0----------------|
F|-----0------0------0----------------|
C|------------------------------------|
G|--7-----8------11-----10----6--5----|
D|--7-----8------11-----10----6--5----|
A|--5-----6------9-------8----4--3----|
     
d|----------------------------------|
a|-----0------0------0--------------|
F|-----0------0------0--------------|
C|----------------------------------|
G|--7-----8------11-----10----6--5--|
D|--7-----8------11-----10----6--5--|
A|--5-----6------9-------8----4--3--|

 Bridge2
d|----------------|
a|----------------|
F|----------------|
C|--9--10---7-----|  
G|--9--10---7-----|
D|--7---8---5-----|
A|----------------|3x

d|-------------|
A|-------------|
F|-------------|
C|-9--10---12--| 
G|-9--10---12--|
D|-7---8---10--|
A|-------------|

 Bridge3
d|--------------|
A|--------------|
F|--------------|
C|-9--10---7~~--| 
G|-9--10---7~~--|
D|-7---8---5~~--|
A|--------------|

 Chorus: Guitar1
d|---------------|
a|---------------|
F|---------------|
C|--------5------| 
G|-7---3--5---5--|
D|-7---3--3---5--|
A|-5---1------3--|

d|------------------|
a|------------------|
F|------------------|
C|------------------|
G|-7----3---5----6--|
D|-7----3---5----6--|
A|-5----1---3----4--|

 Chorus: Guitar2
d|-----------------------------------------|
A|-----------------------------------------|
F|---9---11----------------12---11----9----|
C|---x----x----12-----9----xx---xx----x----|
G|---7----9----xx-----x----10----9----7----|
D|-------------10-----7--------------------|
A|-----------------------------------------|

d|------------------------------------|
A|------------------------------------|
F|---9---11----------------12---11----|
C|---x---xx----12-----9----xx---xx----|
G|---7----9----xx-----x----10----9----|
D|-------------10-----7---------------|
A|------------------------------------| 

 Outro   
d|----------------|
a|----------------|
F|----------------|
C|----------------|
G|-7-7-7-7-7-7----| 
D|-7-7-7-7-7-7----|
A|-5-5-5-5-5-5----|3x

d|-----------|
a|-----------|
F|-----------|
C|-----------|
G|-8-8-8-8---|
D|-8-8-8-8---|
A|-6-6-6-6---|



Korn - Hating


My life is such a waste
Begging for something to work this time
But why can't I relate?
Feeling all I do is get what's mine
Holding on to faith
Never gave me nothing but despair
So why do I create just to be swallowed?

I can't take
We have a start
I can't take
We got a fantasy
Come what may
We are the stars
I can't wait
I'll take what's mine

Been hating all this time, before I crawled inside
Been hating all the faces of everything that I could find
Been hating all this time, too far to cross the line
Been hating all the faces of everything that I could find

I cannot take this place
Burning up inside this space of mine
But why can't I replace feelings I find hard to really find?
I try but I can't taste
Memories they always fuck with me
So why do I create just to be swallowed?

I can't take
We have a star
I can't take
We got a fantasy
Come what may
We are the stars
I can't wait
I'll take what's mine

Been hating all this time, before I crawled inside
Been hating all the faces of everything that I could find
Been hating all this time, too far to cross the line
Been hating all the faces of everything that I could find
Find!
Find!
Find!
Find!
Find!
Find!
Find!

All my feelings have been eating all of me
Feed inside
Is there something wrong with me?

I can't take
We have a star
I can't take
We got a fantasy
Come what may
We are the stars
I can't wait
I'll take what's mine

Been hating all this time, before I crawled inside
Been hating all the faces of everything that I could find
Been hating all this time, too far to cross the line
Been hating all the faces of everything that I could find
Find!
Find!
Find!
Find!
Find!
Find!
Find!
reproducciones 34
Acordes para:
    Composição: Korn Colaboración y revision:
    • Renato Sylgom

    0 comentarios

    mostrar más comentarios

    ¿Conseguiste tocar?

    0 tocaron 0 aún no

    ¡Graba un vídeo tocando Hating y envianoslo!

    00:00 / 00:00
    outros vídeos desta música
    repetir qualidade Automático
    Outros vídeos desta música
    00:00 / 00:00
    Automático
    OK