Cifra Club

Haze

Korn

Tablatura: Principal (guitarra)
Tom: B
(intro)
D|------------------------------------------|
A|------------------------------------------|
F|------------------------------------------|
C|------------------------------------------|
G|-9-9-9^-91010101010--9-9-9^-91010101010---|
D|-9-9----91010101010--9-9----91010101010---|
A|-7-7----7-8-8-8-8-8--7-7----7-8-8-8-8-8---|(4x)

(riff 1 - guitar 1)
D|----------------------------------------------------|
A|-----------------1515151515151515/1313131313131313--|
F|-1111111111111111-----------------------------------|
C|----------------------------------------------------|
G|----------------------------------------------------|
D|----------------------------------------------------|
A|----------------------------------------------------|

D|-------------------------------------------------------------------|
A|-----------------1515151515151515----------------------------------|
F|-1414141414141414----------------15151515151515151515151515151515--|
C|-------------------------------------------------------------------|
G|-------------------------------------------------------------------|
D|-------------------------------------------------------------------|
A|-------------------------------------------------------------------|

(riff 1 - guitar 2)
D|----------------------------------------------------|
A|----------------------------------------------------|
F|----------------------------------------------------|
C|----------------------------------------------------|
G|----------------------------------------------------|
D|----------------------------------------------------|
A|-7777777777777777-10101010101010101010101010101010--|

D|--------------------------------------------------------------------|
A|--------------------------------------------------------------------|
F|--------------------------------------------------------------------|
C|--------------------------------------------------------------------|
G|--------------------------------------------------------------------|
D|--------------------------------------------------------------------|
A|-13131313131313131313131313131313-12121212121212121212121212121212--|

(chorus)
D|------------------------------------------|
A|------------------------------------------|
F|------------------------------------------|
C|------------------------------------------|
G|-9-9-9^-91010101010--9-9-9^-91010101010---|
D|-9-9----91010101010--9-9----91010101010---|
A|-7-7----7-8-8-8-8-8--7-7----7-8-8-8-8-8---|4x

 (riff 1 - guitar 1 & 2)
D|----------------------------------------------------|
A|----------------------------------------------------|
F|----------------------------------------------------|
C|----------------------------------------------------|
G|----------------------------------------------------|
D|----------------------------------------------------|
A|-7777777777777777-10101010101010101010101010101010--|

D|--------------------------------------------------------------------|
A|--------------------------------------------------------------------|
F|--------------------------------------------------------------------|
C|--------------------------------------------------------------------|
G|--------------------------------------------------------------------|
D|--------------------------------------------------------------------|
A|-13131313131313131313131313131313-12121212121212121212121212121212--|

(fill 1)
D|------|
A|------|
F|------|
C|------|
G|-9-9--|
D|-9-9--|
A|-7-7--|

(chorus)
D|------------------------------------------|
A|------------------------------------------|
F|------------------------------------------|
C|------------------------------------------|
G|-9-9-9^-91010101010--9-9-9^-91010101010---|
D|-9-9----91010101010--9-9----91010101010---|
A|-7-7----7-8-8-8-8-8--7-7----7-8-8-8-8-8---|(4x)

(bridge)
D|--------|------------------------------------------------|
A|--------|------192222222221212121-----192222222221212121-|
F|--------|------------------------------------------------|
C|--------|------------------------------------------------|
G|--9--9--|--9-9--------------------9-9--------------------|
D|--9--9--|--9-9--------------------9-9--------------------|
A|--7--7--|--7-7--------------------7-7--------------------|

D|------------------------------------------------|
A|-----192222222221212121-----1922222222----------|
F|--------------------------------------22222222--|
C|------------------------------------------------|
G|-9-9--------------------9-9---------------------|
D|-9-9--------------------9-9---------------------|
A|-7-7--------------------7-7---------------------|

D|-----------------------------------------------------------------------|
A|-----192222222221212121-----192222222221212121-----192222222221212121--|
F|-----------------------------------------------------------------------|
C|-----------------------------------------------------------------------|
G|-9-9--------------------9-9--------------------9-9---------------------|
D|-9-9--------------------9-9--------------------9-9---------------------|
A|-7-7--------------------7-7--------------------7-7---------------------|

(solo - guitar 1 - irreconhecível)

(guitar 2)
D|------------------------------------------|
A|------------------------------------------|
F|------------------------------------------|
C|------------------------------------------|
G|-9-9-9^-91010101010--9-9-9^-91010101010---|
D|-9-9----91010101010--9-9----91010101010---|
A|-7-7----7-8-8-8-8-8--7-7----7-8-8-8-8-8---|(4x)

(fill 2)
D|-----------------------------|
A|-----------------------------|
F|-----------------------------|
C|-----------------------------|
G|-9-9----9-9----9-9----9-9----|
D|-9-9----9-9----9-9----9-9----|
A|-7-7----7-7----7-7----7-7----|

(chorus)
D|------------------------------------------|
A|------------------------------------------|
F|------------------------------------------|
C|------------------------------------------|
G|-9-9-9^-91010101010--9-9-9^-91010101010---|
D|-9-9----91010101010--9-9----91010101010---|
A|-7-7----7-8-8-8-8-8--7-7----7-8-8-8-8-8---|(4x)

(fill 3)
D|------------------------------------------|
A|------------------------------------------|
F|------------------------------------------|
C|------------------------------------------|
G|-9-9-9^-91010101010--9-9-9^-91010101010---|
D|-9-9----91010101010--9-9----91010101010---|
A|-7-7----7-8-8-8-8-8--7-7----7-8-8-8-8-8---|(4x)

(fill 1)
D|------|
A|------|
F|------|
C|------|
G|-9-9--|
D|-9-9--|
A|-7-7--|

Walking alone inside my world
Thinking and doing the right thing
Destroying all that appears before me
It was all done...in vain

Wanna get through violence
Wanna get through pain
Wanna get with violence
Wanna get with shame

Taking this place to call my own
Raping my body without a face
Tortured my soul as black as pitch
And I have no life to waste

Wanna get through violence
Wanna get through pain
Wanna get with violence
Wanna get with shame

I wish you'd do
Do anything
So lost and helpless
I played your game

I wish you'd do
Do anything
So lost and helpless
I played your game

Wanna get through violence
Wanna get through pain
Wanna get with violence
Wanna get with shame
reproducciones 15
Acordes para:
    Composição: Korn Colaboración y revision:
    • Renato Sylgom

    0 comentarios

    mostrar más comentarios

    ¿Conseguiste tocar?

    1 tocaron 0 aún no

    ¡Graba un vídeo tocando Haze y envianoslo!

    00:00 / 00:00
    outros vídeos desta música
    repetir qualidade Automático
    Outros vídeos desta música
    00:00 / 00:00
    Automático
    OK