Cifra Club

Here it comes again

Korn

Tablatura: Principal (guitarra)
Tom: F
Tuning: 7-string guitars tuned down one whole step (ADGCFAD)

Intro: 4x p.m all the way through un till 4th time 
D|-----------------------------------------|
A|-----------------------------------------|
F|-----------------------------------------|
C|-----9---9-10-7-9---------9--9---10---7--|
G|-----------------------------------------|
D|-7--------------------7-7----------------|
A|-----------------------------------------|
Riff A w/heavy dist. 
D|--------------------------------------------------------------------------|
A|--------------------------------------------------------------------------|
F|--------------------------------------------------------------------------|
C|--------------------------------------------------------------------------|
G|----9---9--10--10---------9---9-10-9-------9----9-10--10------9---9-10-9--|
D|----7---7---8---8---------7---7--8-7-------7----7--8---8------7---7--8-7--|
A|-0----0-------0-----0--0-----------------0----0------0----0-0-------------|
Riff A continued
D|--------------------------------------------------------------------------|
A|--------------------------------------------------------------------------|
F|--------------------------------------------------------------------------|
C|--------------------------------------------------------------------------|
G|----9---9--10--10---------9---9-10-9-------9----9-10--10------9---9-10-9--|
D|----7---7---8---8---------7---7--8-7-------7----7--8---8------7---7--8-7--|
A|-0----0-------0-----0--0-----------------0----0------0----0-0-------------|
Verse: 2x w/heavy dist.
D|-----------------------------------------------------------------|
A|-----------------------------------------------------------------|
F|-----------------------------------------------------------------|
C|-----------------------------------------------------------------|
G|-----------------------------------------------------------------|
D|-----------------------------------------------------------------|
A|-6-6-6-6----6-6-6-6----9-9-9-9----3-3-3-3----3-3-3-3----3-3-3-3--|
Verse continued
D|------------------------------------------------------------|
A|------------------------------------------------------------|
F|------------------------------------------------------------|
C|------------------------------------------------------------|
G|------------------------------------------------------------|
D|------------------------------------------------------------|
A|-5-5-5-5---5-5-5-5---8-8-8-8---3-3-3-3---3-3-3-3---3-3-3-3--|
Pre chorus: w/heavy dist
D|----------------------|
A|----------------------|
F|----------------------|
C|----------------------|
G|-8---12-5---7-10---5--|
D|-8---12-5---7-10---5--|
A|-6----9-3---5--8---3--|
Chorus w/heavy dist. 
D|--------------------------------------------------------------------------|
A|--------------------------------------------------------------------------|
F|--------------------------------------------------------------------------|
C|--------------------------------------------------------------------------|
G|----9---9--10--10---------9---9-10-9-------9----9-10--10------9---9-10-9--|
D|----7---7---8---8---------7---7--8-7-------7----7--8---8------7---7--8-7--|
A|-0----0-------0-----0--0-----------------0----0------0----0-0-------------|
Chorus continued
D|--------------------------------------------------------------------------|
A|--------------------------------------------------------------------------|
F|--------------------------------------------------------------------------|
C|--------------------------------------------------------------------------|
G|----9---9--10--10---------9---9-10-9-------9----9-10--10------9---9-10-9--|
D|----7---7---8---8---------7---7--8-7-------7----7--8---8------7---7--8-7--|
A|-0----0-------0-----0--0-----------------0----0------0----0-0-------------|
Verse: 2x w/heavy dist.
D|-----------------------------------------------------------------|
A|-----------------------------------------------------------------|
F|-----------------------------------------------------------------|
C|-----------------------------------------------------------------|
G|-----------------------------------------------------------------|
D|-----------------------------------------------------------------|
A|-6-6-6-6----6-6-6-6----9-9-9-9----3-3-3-3----3-3-3-3----3-3-3-3--|
Verse continued
D|------------------------------------------------------------|
A|------------------------------------------------------------|
F|------------------------------------------------------------|
C|------------------------------------------------------------|
G|------------------------------------------------------------|
D|------------------------------------------------------------|
A|-5-5-5-5---5-5-5-5---8-8-8-8---3-3-3-3---3-3-3-3---3-3-3-3--|
Pre chorus: w/heavy dist
D|----------------------|
A|----------------------|
F|----------------------|
C|----------------------|
G|-8---12-5---7-10---5--|
D|-8---12-5---7-10---5--|
A|-6----9-3---5--8---3--|
Chorus w/heavy dist. 
D|----------------------------------------------------------------------------------
A|----------------------------------------------------------------------------------
F|----------------------------------------------------------------------------------
C|----------------------------------------------------------------------------------
G|----9---9--10--10---------9---9-10-9-------9----9-10--10------9---9-10-9----------
D|----7---7---8---8---------7---7--8-7-------7----7--8---8------7---7--8-7----------
A|-0----0-------0-----0--0-----------------0----0------0----0-0---------------------
Chorus continued
D|----------------------------------------------------------------------------------
A|----------------------------------------------------------------------------------
F|----------------------------------------------------------------------------------
C|----------------------------------------------------------------------------------
G|----9---9--10--10---------9---9-10-9-------9----9-10--10------9---9-10-9----------
D|----7---7---8---8---------7---7--8-7-------7----7--8---8------7---7--8-7----------
A|-0----0-------0-----0--0-----------------0----0------0----0-0---------------------
Bridge
D|----------------
A|----------------
F|----------------
C|----------------
G|-8--------------
D|-8--------------
A|-6--------------

D|---------------------------------------------------------------------------------
A|---------------------------------------------------------------------------------
F|---------------------------------------------------------------------------------
C|--I’m not sure about this part if anyone can help me, plz email me---------------
G|---------------------------------------------------------------------------------
D|---------------------------------------------------------------------------------
A|---------------------------------------------------------------------------------
w/heavy dist 3x             play 3rd time only*                  
D|------------------------------------------------------------------------------
A|------------------------------------------------------------------------------
F|--------------------------------10-10---10--10--------------------------------
C|--------------------------------x---x---x---x---------------------------------
G|-7-7-7-7---8-7----7-7-7-7-------8---8---8---8---------------------------------
D|-7-7-7-7---8-7----7-7-7-7-----------------------------------------------------
A|-5-5-5-5---6-5----5-5-5-5-----------------------------------------------------
                   * * * *      *    *    *    *




w/heavy dist 3x       play 3rd time only*              
D|------------------------------------------------------------------------------
A|------------------------------------------------------------------------------
F|------------------------------------------------------------------------------
C|------------------------------------------------------------------------------
G|-7-7-7-7---8-7----7-7-7-7---5-------------------------------------------------
D|-7-7-7-7---8-7----7-7-7-7---5-------------------------------------------------
A|-5-5-5-5---6-5----5-5-5-5---3-------------------------------------------------
                   * * * *   *
w/heavy dist 3x        play 3rd time only*                  
D|------------------------------------------------------------------------------
A|------------------------------------------------------------------------------
F|--------------------------------10-10---10--10--------------------------------
C|--------------------------------x---x---x---x---------------------------------
G|-7-7-7-7---8-7----7-7-7-7-------8---8---8---8---------------------------------
D|-7-7-7-7---8-7----7-7-7-7-----------------------------------------------------
A|-5-5-5-5---6-5----5-5-5-5-----------------------------------------------------
                   * * * *       *    *    *    *
w/heavy dist 3x       play 3rd time only*              
D|------------------------------------------------------------------------------
A|------------------------------------------------------------------------------
F|------------------------------------------------------------------------------
C|------------------------------------------------------------------------------
G|-7-7-7-7---8-7----7-7-7-7---5-------------------------------------------------
D|-7-7-7-7---8-7----7-7-7-7---5-------------------------------------------------
A|-5-5-5-5---6-5----5-5-5-5---3-------------------------------------------------
                   * * * *   *
w/heavy dist 3x        play 3rd time only*                  
D|-----------------------------------------------------------------------------
A|-----------------------------------------------------------------------------
F|--------------------------------10-10--10--10----------------------------------
C|--------------------------------x---x---x---x--------------------------------
G|-7-7-7-7---8-7----7-7-7-7-------8---8---8---8---------------------------------
D|-7-7-7-7---8-7----7-7-7-7-----------------------------------------------------
A|-5-5-5-5---6-5----5-5-5-5---------------------------------------------------
                   * * * *       *   *   *   *
w/heavy dist 3x       play 3rd time only*              
D|------------------------------------------------------------------------------
A|------------------------------------------------------------------------------
F|------------------------------------------------------------------------------
C|------------------------------------------------------------------------------
G|-7-7-7-7---8-7----7-7-7-7---5-------------------------------------------
D|-7-7-7-7---8-7----7-7-7-7---5-------------------------------------------
A|-5-5-5-5---6-5----5-5-5-5---3-------------------------------------------
                   * * * *   *
w/heavy dist 3x        play 3rd time only*                  
D|-----------------------------------------------------------------------------
A|-----------------------------------------------------------------------------
F|--------------------------------10-10---10-10----------------------------------
C|--------------------------------x---x---x---x--------------------------------
G|-7-7-7-7---8-7----7-7-7-7-------8---8---8---8--------------------------------
D|-7-7-7-7---8-7----7-7-7-7----------------------------------------------------
A|-5-5-5-5---6-5----5-5-5-5----------------------------------------------------
                   * * * *       *   *   *   *
w/heavy dist 3x       play 3rd time only*              
D|------------------------------------------------------------------------------
A|------------------------------------------------------------------------------
F|------------------------------------------------------------------------------
C|------------------------------------------------------------------------------
G|-7-7-7-7---8-7----7-7-7-7---5------------------------------------------------
D|-7-7-7-7---8-7----7-7-7-7---5------------------------------------------------
A|-5-5-5-5---6-5----5-5-5-5---3------------------------------------------------
                   * * * *   *






Pre chorus: w/heavy dist
D|----------------------------------------------------------------------------------
A|----------------------------------------------------------------------------------
F|----------------------------------------------------------------------------------
C|----------------------------------------------------------------------------------
G|-8---12-5---7-10---5------------------------------------------------------------
D|-8---12-5---7-10---5------------------------------------------------------------
A|-6---9--3---5--8---3-----------------------------------------------------------
Chorus w/heavy dist. 
D|----------------------------------------------------------------------------------
A|----------------------------------------------------------------------------------
F|----------------------------------------------------------------------------------
C|----------------------------------------------------------------------------------
G|----9---9--10--10---------9---9-10-9-------9----9-10--10------9---9-10-9---------
D|----7---7---8---8---------7---7--8-7-------7----7--8---8------7---7--8-7----------
A|-0----0-------0-----0--0-----------------0----0------0----0-0---------------------
Chorus continued
D|----------------------------------------------------------------------------------
A|----------------------------------------------------------------------------------
F|----------------------------------------------------------------------------------
C|----------------------------------------------------------------------------------
G|----9---9--10--10---------9---9-10-9-------9----9-10--10------9---9-10-9---------
D|----7---7---8---8---------7---7--8-7-------7----7--8---8------7---7--8-7----------
A|-0----0-------0-----0--0-----------------0----0------0----0-0---------------------
I’m sorry that this tab is so long but I’m sure it sounds almost exactly alike. 
Well enjoy.
reproducciones 41
Acordes para:
    Composição: Korn Colaboración y revision:
    • Thiago Leal

    0 comentarios

    mostrar más comentarios

    ¿Conseguiste tocar?

    0 tocaron 0 aún no

    ¡Graba un vídeo tocando Here it comes again y envianoslo!

    00:00 / 00:00
    outros vídeos desta música
    repetir qualidade Automático
    Outros vídeos desta música
    00:00 / 00:00
    Automático
    OK