Cifra Club

Im Done

Korn

Tablatura: Principal (guitarra)
Tom: C#
Intro: Guitar1
d|-----17~-----18~------------------|-----17~-----18~---------------|
a|-15~-----15~-----15~-18~----15-18-|-15~-----15~-----15~-18~----18-|
F|-------------------------15-------|-------------------------15----|
C|----------------------------------|-------------------------------|
G|----------------------------------|-------------------------------|
D|----------------------------------|-------------------------------|
A|----------------------------------|-------------------------------|
 
 Guitar2
d|--------------------|--------------------|
A|--------------------|--------------------|
F|--------------------|--------------------|
C|-8~~~~~~~/11\8~~~~~~|88~~~~~~~/11\8~~~~~~|    
G|-xxxxxxxxxxxxxxxxxxx|xxxxxxxxxxxxxxxxxxxx|
D|-6~~~~~~~/-9\6~~~~~~|66~~~~~~~/-9\6~~~~~~|
A|--------------------|--------------------|

 Fill1: Guitar1 & Guitar2
d|----------|
a|----------|
F|----------|
C|----------|
G|----------|
D|-5x55x55x-|
A|-3x33x33x-|

 Pre-verse: Guitar1 & Guitar2
d|--------------------------------------------------------|
a|--------------------------------------------------------|
F|--------------------------------------------------------|
C|--------------------------------------------------------|
G|--------------------------------------------------------|
D|-5x55x55x-5h8--5x55x55x-5h8--5x55x55x-5h8--5x55x55x-5h6-|
A|-3x33x33x-3h6--3x33x33x-3h6--3x33x33x-3h6--3x33x33x-3h4-|

 Verse: Guitar1
d|-----17~-----18~------------------|-----17~-----18~---------------|
a|-15~-----15~-----15~-18~----15-18-|-15~-----15~-----15~-18~----18-|
F|-------------------------15-------|-------------------------15----|
C|----------------------------------|-------------------------------|
G|----------------------------------|-------------------------------|
D|----------------------------------|-------------------------------|
A|----------------------------------|-------------------------------|
 
 Guitar2
d|----------------|----------------|
a|----------------|----------------|
F|----------------|----------------|
C|----------------|----------------|    
G|-----5x5x-------|-----5x5x-------|
D|------------5h8-|------------5h6-|
A|-3x3x----3x-3h6-|-3x3x----3x-3h4-|

Chorus: Guitar2
d|------------------------------------------------------|
A|------------------------------------------------------|
F|-1616161616161616161616161212121212121212111111119999-|
C|-xxxxxxxxxxxxxxxxxxxxxxxxxxxxxxxxxxxxxxxxxxxxxxxxxxxx-|       
G|-1414141414141414141414141010101010101010-9-9-9-97777-|
D|------------------------------------------------------|
A|------------------------------------------------------|
 
 Guitar1
d|------------------------------------------|
a|------------------------------------------|
F|------------------------------------------|
C|------------------------------------------|   
G|-------4~-------5~4-4------4~-------------|
D|-2-22-22~-2-22-23~2-2-22-222~-22-22/5/7\3-|
A|-0-00-0---0-00-0------00-00---00-00/3/5\1-|

Verse: Guitar1
d|-----17~-----18~------------------|-----17~-----18~---------------|
a|-15~-----15~-----15~-18~----15-18-|-15~-----15~-----15~-18~----18-|
F|-------------------------15-------|-------------------------15----|
C|----------------------------------|-------------------------------|
G|----------------------------------|-------------------------------|
D|----------------------------------|-------------------------------|
A|----------------------------------|-------------------------------|

Guitar2
d|----------------|----------------|
a|----------------|----------------|
F|----------------|----------------|
C|----------------|----------------|    
G|-----5x5x-------|-----5x5x-------|
D|------------5h8-|------------5h6-|
A|-3x3x----3x-3h6-|-3x3x----3x-3h4-|

Chorus: Guitar2
d|------------------------------------------------------|
A|------------------------------------------------------|
F|-1616161616161616161616161212121212121212111111119999-|
C|-xxxxxxxxxxxxxxxxxxxxxxxxxxxxxxxxxxxxxxxxxxxxxxxxxxxx-|       
G|-1414141414141414141414141010101010101010-9-9-9-97777-|
D|------------------------------------------------------|
A|------------------------------------------------------|
 
 Guitar1
d|------------------------------------------|
a|------------------------------------------|
F|------------------------------------------|
C|------------------------------------------|   
G|-------4~-------5~4-4------4~-------------|
D|-2-22-22~-2-22-23~2-2-22-222~-22-22/5/7\3-|
A|-0-00-0---0-00-0------00-00---00-00/3/5\1-|

Pre-verse: Guitar1 & Guitar2
d|--------------------------------------------------------|
a|--------------------------------------------------------|
F|--------------------------------------------------------|
C|--------------------------------------------------------|
G|--------------------------------------------------------|
D|-5x55x55x-5h8--5x55x55x-5h8--5x55x55x-5h8--5x55x55x-5h6-|
A|-3x33x33x-3h6--3x33x33x-3h6--3x33x33x-3h6--3x33x33x-3h4-|

 Bridge1: Guitar1
d|---------------------------|-----------------------------|
a|-12~~~15-10~~~9~~~12-5~~4~~|-12~~~15-10~~17-9~~~12-5~~4~~|
F|---------------------------|-----------------------------|
C|---------------------------|-----------------------------|    
G|---------------------------|-----------------------------|
D|---------------------------|-----------------------------|
A|---------------------------|-----------------------------|

 Guitar2
d|---------------------------------|
a|---------------------------------|
F|---------------------------------|
C|---------------------------------|    
G|---------------------------------|
D|---------------------------------|
A|-3-33-3-3-3-3333-3-33-3-3-3-3333-|

 Bridge2: Guitar1 & Guitar2
d|------------------------|
A|------------------------|
F|-4444666677799912121111-|
C|-xxxxxxxxxxxxxxxxxxxxxx-|
G|-222244445557771010-9-9-| 
D|------------------------| 
A|------------------------|

 Bridge3: Guitar1
d|------------------------|
A|------------------------|
F|-4444666677799912121111-|
C|-xxxxxxxxxxxxxxxxxxxxxx-|     
G|-222244445557771010-9-9-| 
D|------------------------| 
A|------------------------|

 Guitar2
d|----------|
a|----------|
F|----------|
C|----------|   
G|----------|
D|-5x55x55x-|
A|-3x33x33x-|

Chorus: Guitar2
d|------------------------------------------------------|
A|------------------------------------------------------|
F|-1616161616161616161616161212121212121212111111119999-|
C|-xxxxxxxxxxxxxxxxxxxxxxxxxxxxxxxxxxxxxxxxxxxxxxxxxxxx-|       
G|-1414141414141414141414141010101010101010-9-9-9-97777-|
D|------------------------------------------------------|
A|------------------------------------------------------|
 
 Guitar1
d|------------------------------------------|
a|------------------------------------------|
F|------------------------------------------|
C|------------------------------------------|   
G|-------4~-------5~4-4------4~-------------|
D|-2-22-22~-2-22-23~2-2-22-222~-22-22/5/7\3-|
A|-0-00-0---0-00-0------00-00---00-00/3/5\1-|

Outro: Guitar1 & Guitar2
d|-----------------------------------------------------|
a|-----------------------------------------------------|
F|-----------------------------------------------------|
C|-----------------------------------------------------|
G|-----------------------------------------------------|
D|-5x55x55x-5h8--5x55x55x-5h8--5x55x55x-5h8--5x55x55x--|
A|-3x33x33x-3h6--3x33x33x-3h6--3x33x33x-3h6--3x33x33x--|



Korn - I'm Done


We are the pain, we are the shame
We've gone insane inside where no one's around

I am to blame for everything
I like this game that you all make me play

I'm done being there for others
They have their pain and so do I
Don't need to feel it all over
I try to hold on and you bring me down

We are estranged, we are deranged
I can't explain how you all break me apart

I am to blame for everything
I like this game that you all make me play

I'm done being there for others
They have their pain and so do I
Don't need to feel it all over
I try to hold on and you bring me down

We wait, we hate, we try to get away
Mistake, my pain, it has been lead astray
I'm looking around, I drop to the ground
Why does it have to end this way?

Feeling numb, so long
Oh, God, it's just everything, it's everyday
Now I pray for all of them to go away!

I'm done being there for others
They have their pain and so do I
Don't need to feel it all over
I try to hold on and you bring me down
reproducciones 27
Acordes para:
    Composição: Korn Colaboración y revision:
    • Renato Sylgom

    0 comentarios

    mostrar más comentarios

    ¿Conseguiste tocar?

    0 tocaron 0 aún no

    ¡Graba un vídeo tocando Im Done y envianoslo!

    00:00 / 00:00
    outros vídeos desta música
    repetir qualidade Automático
    Outros vídeos desta música
    00:00 / 00:00
    Automático
    OK