Cifra Club

Kidnap The Sandy Claws

Korn

Tablatura: Principal (guitarra)
Tom: G#
Intro: Guitar 1
D|----------------------------------------------------------------------------|
A|----------------------------------------------------------------------------|
F|----------------------------------------------------------------------------|
C|----------------------------------------------------------------------------|
G|-------------------------------------------------------------7--------------|
D|--4----7----6----7----4----7----6---------4----7----6----7-------7----------|
A|-------------------------------------8-------------------------------8------|

Intro: Guitar 2
D|----------------------------------------------------------------------------|
A|----------------------------------------------------------------------------|
F|----------------------------------------------------------------------------|
C|--18--------17--------16--------15--------14--------13-------14-------------|
G|----------------------------------------------------------------------------|
D|----------------------------------------------------------------------------|
A|----------------------------------------------------------------------------|

Intro: Guitar 1 
D|------------------------------------------------------------------------------------|
A|------------------------------------------------------------------------------------|
F|------------------------------------------------------------------------------------|
C|------------------------------------------------------------------------------------|
G|--------------------------------------------------------------------------10-9--8---|
D|--------------------------------------------------------------------------8--7--6---|
A|--8h12----0----0---8h12----0----0---8h11----8h12----0----0----8h12----0-------------|

Intro: Guitar 1 
D|------------------------------------------------------------------------------------|
A|------------------------------------------------------------------------------------|
F|------------------------------------------------------------------------------------|
C|------------------------------------------------------------------------------------|
G|--------------------------------------------------------------------------12-11-10--|
D|--------------------------------------------------------------------------10-9--8---|
A|--8h12----0----0---8h12----0----0---8h11----8h12----0----0----8h12----0-------------|

Verso 1: Guitar 1 
D|----------------------------------------------------------------------------|
A|--0---0----0---0----0---0----0---0----0---0----0---0------------------------|
F|----7---7----6--------7---7----6--------7---7----6--------------------------|
C|------------------------------------------------------------------8--8--8---|
G|--------------------------------------------------------10-10-10--x--x--x---|
D|--------------------------------------------------------x--x--x---6--6--6---|
A|--------------------------------------------------------8--8--8-------------|


Verso 1: Guitar 1 
D|----------------------------------------------------------------------------|
A|--0---0----0---0----0---0----0---0----0---0----0---0------------------------|
F|----7---7----6--------7---7----6--------7---7----6--------------------------|
C|--------------------------------------------------------5--5--5-------------|
G|--------------------------------------------------------x--x--x-------------|
D|--------------------------------------------------------3--3--3---5--4--4---|
A|------------------------------------------------------------------3--2--2---|
   

Refrão: Guitar 1 
D|------------------------------------------------------------------------------------|
A|------------------------------------------------------------------------------------|
F|------------------------------------------------------------------------------------|
C|------------------------------------------------------------------------------------|
G|--------------------------------------------------------------------------10-9--8---|
D|--------------------------------------------------------------------------8--7--6---|
A|--8h12----0----0---8h12----0----0---8h11----8h12----0----0----8h12----0-------------|

Refrão: Guitar 1 
D|------------------------------------------------------------------------------------|
A|------------------------------------------------------------------------------------|
F|------------------------------------------------------------------------------------|
C|------------------------------------------------------------------------------------|
G|--------------------------------------------------------------------------12-11-10--|
D|--------------------------------------------------------------------------10-9--8---|
A|--8h12----0----0---8h12----0----0---8h11----8h12----0----0----8h12----0-------------|

Pos-Refrão : Guitar 1 
D|----------------------------------------------------------------------------|
A|----------------------------------------------------------------------------|
F|----------------------------------------------------------------------------|
C|--3--4--3--4--3------------------------3--4--3--4--3------------------------|
G|--x--x--x--x--x------------------------x--x--x--x--x------------------------|
D|--1--2--1--2--1-p0--2----3------4------1--2--1--2--1-p0--2----4------5------|
A|--------------------0----1------2------------------------0----2------3------|

Pos-Refrão : Guitar 1
D|----------------------------------------------------------------------------|
A|----------------------------------------------------------------------------|
F|----------------------------------------------------------------------------|
C|----------------------------------------------------------------------------|
G|-------------------------------------------------------------7--------------|
D|--4----7----6----7----4----7----6---------4----7----6----7-------7----------|
A|-------------------------------------8-------------------------------8---5--|
                                                                              |
Pos-Refrão: Guitar 2                          |
D|----------------------------------------------------------------------------|
A|----------------------------------------------------------------------------|
F|----------------------------------------------------------------------------|
C|--18--------17--------16--------15--------14--------13-------14-------------|
G|----------------------------------------------------------------------------|
D|----------------------------------------------------------------------------|
A|----------------------------------------------------------------------------|

Pos-Refrão: Guitar 2 
D|----------------------------------------------------------------------------|
A|----------------------------------------------------------------------------|
F|----------------------------------------------------------------------------|
C|--16--------11--------12--11--12--14--12--11--------16----11----9-----------|
G|----------------------------------------------------------------------------|
D|----------------------------------------------------------------------------|
A|----------------------------------------------------------------------------|

Verso 2: Guitar 1 
D|----------------------------------------------------------------------------|
A|----------------------------------------------------------------------------|
F|----------------------------------------------------------------------------|
C|----------------------------------------------------------------------------|
G|----------------------------------------------------------------------------|
D|----------------------------------------------------------------5-5-5-4-4-4-|
A|----------------------------------------------------------------3-3-3-2-2-2-|
                                                                              |
Verso 2: Guitar 2               
D|----------------------------------------------------------------------------|
A|----------------------------------------------------------------------------|
F|----------------------------------------------------------------------------|
C|--16--------11--------12--11--12--14--12--11--------16----------18----19----|
G|----------------------------------------------------------------------------|
D|----------------------------------------------------------------------------|
A|----------------------------------------------------------------------------|

Refrão: Guitar 1 
D|------------------------------------------------------------------------------------|
A|------------------------------------------------------------------------------------|
F|------------------------------------------------------------------------------------|
C|------------------------------------------------------------------------------------|
G|--------------------------------------------------------------------------10-9--8---|
D|--------------------------------------------------------------------------8--7--6---|
A|--8h12----0----0---8h12----0----0---8h11----8h12----0----0----8h12----0-------------|

Refrão: Guitar 1 
D|------------------------------------------------------------------------------------|
A|------------------------------------------------------------------------------------|
F|------------------------------------------------------------------------------------|
C|------------------------------------------------------------------------------------|
G|--------------------------------------------------------------------------12-11-10--|
D|--------------------------------------------------------------------------10-9--8---|
A|--8h12----0----0---8h12----0----0---8h11----8h12----0----0----8h12----0-------------|

Refrão :
D|----------------------------------------------------------------------------|
A|----------------------------------------------------------------------------|
F|----------------------------------------------------------------------------|
C|--4--------/-9----------4--------/-9-------10-------------------------------|
G|--x----------x----------x----------x-------10----------9------10-----9------|
D|--2--------/-7----------2--------/-7-------8-----------9------10-----9------|
A|-------------------------------------------------------7------8------7------|

Pos-Refrão:
D|----------------------------------------------------------------------------|
A|----------------------------------------------------------------------------|
F|----------------------------------------------------------------------------|
C|--3--4--3--4--3------------------------3--4--3--4--3------------------------|
G|--x--x--x--x--x------------------------x--x--x--x--x------------------------|
D|--1--2--1--2--1-p0--2----3------4------1--2--1--2--1-p0--2----4------5------|
A|--------------------0----1------2------------------------0----2------3------|

Pos-Refrã: 
D|----------------------------------------------------------------------------|
A|----------------------------------------------------------------------------|
F|----------------------------------------------------------------------------|
C|--3--4--3--4--3------------------------3--4--3--4--3------------------------|
G|--x--x--x--x--x------------------------x--x--x--x--x------------------------|
D|--1--2--1--2--1-p0--2----3------4------1--2--1--2--1-p0--2----5------4------|
A|--------------------0----1------2------------------------0----3------2------|

Verso 3: Guitar 1 
D|----------------------------------------------------------------------------|
A|----------------------------------------------------------------------------|
F|----------------------------------------------------------------------------|
C|----------------------------------------------------------------------------|
G|---------------------------------------------------------------10----7------|
D|--------4-----5-----9-----------4-----10----13-----7-----10----8-----5------|
A|--0-----2-----3-----7-----0-----2-----8-----11-----5-----8------------------|
                                                                              
Verso 3: Guitar 2 
D|--------------------14-----------------------------------------8-----5------|
A|--12----14----15----------12----14----8-----11-----5-----8------------------|
F|----------------------------------------------------------------------------|
C|----------------------------------------------------------------------------|
G|----------------------------------------------------------------------------|
D|----------------------------------------------------------------------------|
A|----------------------------------------------------------------------------|

Verso 4: Guitar 1 
D|----------------------------------------------------------------------------|
A|----------------------------------------------------------------------------|
F|----------------------------------------------------------------------------|
C|------------------------------------------------------------------6--6--6---|
G|--0---0----0--------0---0----0--------0---0----0--------8--8--8---x--x--x---|
D|----8---8----7-7------8---8----7-7------8---8----7-7----x--x--x---4--4--4---|
A|--------------------------------------------------------6--6--6-------------|

Verso 4: Guitar 1 
D|----------------------------------------------------------------------------|
A|----------------------------------------------------------------------------|
F|----------------------------------------------------------------------------|
C|--------------------------------------------------------6--6--6-------------|
G|--0---0----0--------0---0----0--------0---0----0--------x--x--x---8--8--8---|
D|----8---8----7-7------8---8----7-7------8---8----7-7----4--4--4---x--x--x---|
A|------------------------------------------------------------------6--6--6---|

Verso 4: Guitar 1 
D|----------------------------------------------------------------------------|
A|----------------------------------------------------------------------------|
F|----------------------------------------------------------------------------|
C|------------------------------------------------------------------6--6--6---|
G|--0---0----0--------0---0----0--------0---0----0--------8--8--8---x--x--x---|
D|----8---8----7-7------8---8----7-7------8---8----7-7----x--x--x---4--4--4---|
A|--------------------------------------------------------6--6--6-------------|

Verso 4: Guitar 1 
D|----------------------------------------------------------------------------|
A|----------------------------------------------------------------------------|
F|----------------------------------------------------------------------------|
C|--------------------------------------------------------6--6--6-------------|
G|--0---0----0--------0---0----0--------0---0----0--------x--x--x-------------|
D|----8---8----7-7------8---8----7-7------8---8----7-7----4--4--4-------------|
A|----------------------------------------------------------------------------|

Refrão: Guitar 1 
D|------------------------------------------------------------------------------------|
A|------------------------------------------------------------------------------------|
F|------------------------------------------------------------------------------------|
C|------------------------------------------------------------------------------------|
G|--------------------------------------------------------------------------10-9--8---|
D|--------------------------------------------------------------------------8--7--6---|
A|--8h12----0----0---8h12----0----0---8h11----8h12----0----0----8h12----0-------------|

Refrão: Guitar 1 
D|------------------------------------------------------------------------------------|
A|------------------------------------------------------------------------------------|
F|------------------------------------------------------------------------------------|
C|------------------------------------------------------------------------------------|
G|--------------------------------------------------------------------------12-11-10--|
D|--------------------------------------------------------------------------10-9--8---|
A|--8h12----0----0---8h12----0----0---8h11----8h12----0----0----8h12----0-------------|


Outro: Guitar 1 
D|-------------------------------------------------------------------------------------|
A|-------------------------------------------------------------------------------------|
F|-------------------------------------------------------------------------------------|
C|-------------------------------------------------------------------------------------|
G|---------------------------------------------------------------------------10-9--8---|
D|---------------------------------------------------------------------------8--7--6---|
A|--8h12----0----0----8h12----0----0---8h11----8h12----0----0----8h12----0-------------|
                                                                              
Outro: Guitar 2                                 
D|----------------------------------------------------------------------------|
A|--12------------------------------------15----------------------------------|
F|----------------------------------------------------------------------------|
C|----------------------------------------------------------------------------|
G|----------------------------------------------------------------------------|
D|----------------------------------------------------------------------------|
A|----------------------------------------------------------------------------|

Outro: Guitar 1 
D|-------------------------------------------------------------------------------------|
A|-------------------------------------------------------------------------------------|
F|-------------------------------------------------------------------------------------|
C|-------------------------------------------------------------------------------------|
G|---------------------------------------------------------------------------10-9--8---|
D|---------------------------------------------------------------------------8--7--6---|
A|--8h12----0----0----8h12----0----0---8h11----8h12----0----0----8h12----0-------------|
                                                                              
Outro: Guitar 2                                
D|----------------------------------------------------------------------------|
A|--19------------------------------------24----------------------------------|
F|----------------------------------------------------------------------------|
C|----------------------------------------------------------------------------|
G|----------------------------------------------------------------------------|
D|----------------------------------------------------------------------------|
A|----------------------------------------------------------------------------|

Outro: Guitar 1 
D|-------------------------------------------------------------------------------------|
A|-------------------------------------------------------------------------------------|
F|-------------------------------------------------------------------------------------|
C|-------------------------------------------------------------------------------------|
G|---------------------------------------------------------------------------10-9--8---|
D|---------------------------------------------------------------------------8--7--6---|
A|--8h12----0----0----8h12----0----0---8h11----8h12----0----0----8h12----0-------------|
                                                                              
Outro: Guitar 2                                    
D|----------------------------------------------------------------------------|
A|--12------------------------------------15----------------------------------|
F|----------------------------------------------------------------------------|
C|----------------------------------------------------------------------------|
G|----------------------------------------------------------------------------|
D|----------------------------------------------------------------------------|
A|----------------------------------------------------------------------------|

Outro: Guitar 1 
D|------------------------------------------------------------------------------------|
A|------------------------------------------------------------------------------------|
F|------------------------------------------------------------------------------------|
C|------------------------------------------------------------------------------------|
G|--------------------------------------------------------------------------12-11-10--|
D|--------------------------------------------------------------------------10-9--8---|
A|--8h12----0----0---8h12----0----0---8h11----8h12----0----0----8h12----0-------------|
                                                                 
Outro: Guitar 2 
D|----------------------------------------------------------------------------|
A|--19------------------------------------24----------------------------------|
F|----------------------------------------------------------------------------|
C|----------------------------------------------------------------------------|
G|----------------------------------------------------------------------------|
D|----------------------------------------------------------------------------|
A|----------------------------------------------------------------------------|



KoRn - Kidnap The Sandy Claws


La, la, la, la, la
La, la, la, la, la

La, la, la, la, La
La, la, la, la, la

Kidnap the Sandy Claws, lock him up real tight
Throw away the key and then
Turn off all the lights

First, we're going to set some bait
Inside a nasty trap and wait
When he comes a-sniffing we will
Snap the trap and close the gate

Wait! I've got a better plan
To catch this big red lobster man
Let's pop him in a boiling pot
And when he's done we'll butter him up

Kidnap the Sandy Claws
Throw him in a box
Bury him for ninety years
Then see if he talks

Then Mr. Oogie Boogie man
Can take the whole thing over then
He'll be so pleased, I do declare
That he will cook him rare

I say that we take a cannon
Aim it at his door and then
Knock three times and when he anwers
Sandy Claws will be no more

You're so stupid, think now
If we blow him up into smithereens
We may lose some pieces
And the Jack will beat us black and green

Kidnap the Sandy Claws
Tie him in a bag
Throw him in the ocean
Then see if he is sad

Because Mr. Oogie Boogie id the meanest guy around
If I were on his Boogie list, I'd get out of town

He'll be so pleased by our success
That he'll reward us too, I bet
Perhaps he'll make his special brew
Of snake and spider stew
Ummm!

We're his little henchmen
And we take our job with pride
We do our best to please him
And stay on his good side

I wish my cohorts weren't so dumb

I'm not the dumb one

You're no fun

Shut up!
I've got something, listen now
This one is real good, you'll see
We'll send a present to his door
Upon there'll be a note to read
Now, in the box we'll wait and hide

Until his curiousity
Entices him to look inside
And then we'll have him
One, two, three

Kidnap the Sandy Claws, beat him with a stick
Lock him for ninety years, see what makes him tick
Kidnap the Sandy Claws, chop him into bits
Mr. Oogie Boogie is sure to get his kicks

Kidnap the Sandy Claws, see what we will see!
Lock him in a cage and then throw away the key!

Kidnap the Sandy Claws, see what we will see!
Lock him in a cage and then throw away the key!

La, la, la, la, la
La, la, la, la, la

La, la, la, la, la
La, la, la, la, la

La, la, la, la, la
La, la, la, la, la

La, la, la, la, la
La, la, la, la, la
reproducciones 76
Acordes para:
    Composição: Danny Elfman Colaboración y revision:
    • Renato Sylgom

    0 comentarios

    mostrar más comentarios

    ¿Conseguiste tocar?

    0 tocaron 0 aún no

    ¡Graba un vídeo tocando Kidnap The Sandy Claws y envianoslo!

    00:00 / 00:00
    outros vídeos desta música
    repetir qualidade Automático
    Outros vídeos desta música
    00:00 / 00:00
    Automático
    OK