Cifra Club

Kill You

Korn

Tablatura: Principal (guitarra)
Tom: G
Intro/Verse Riff 1 w/Flange
a||-----------------------------------------------------||
f||-------------------------------7---7-7---------------||
C||-------------------------5-------------5-5----5---5--|| play this very slow
G||--5--5--5--5--5---5--4-4---4-4--------------4---4----|| 
D||-----------------------------------------------------|| 
A||-----------------------------------------------------||

Pre-Chorus Riff 1 w/distortion "Now these memories..."
a||--------------------------------||
f||--------------------------------|| This part is that REALLY HEAVY note
C||--------------------------------|| turn up your bass all the way, on this 
G||-2------------6--------5/4/3----|| one, to get that ballzy sound
D||-0------------6--------5/4/3----|| Let the first 2 chords ring out.
A||--------------4--------3/2/1----||

Chorus Riff 1 "You are not my real mother..."
a||----------------------||
f||----------------------|| 
C||----------------------||this part is similiar to the pre-chorus, same  
G||-2--6--5/4/3----------||chords but it's played a bit faster 
D||-0--6--5/4/3----------|| 
A||----4--3/2/1----------||

Bridge Riff 1 "Looking back.."    Bride riff 2(Noise part)
Guitar 1                          Guitar 2 
 P.M..........    
d||-------------||               d||---13/14-----15/14/13------||      
a||-------------||               a||---------------------------||not too         
C||-------------||               C||---------------------------||sure about
G||-------------||               G||---------------------------||this part??
D||-2-2-2-2-2---||               D||---------------------------||
A||-0-0-0-0-0---||               A||---------------------------||

Intro/Verse Riff 1 w/Flange "You made my life not so.."
a||-----------------------------------------------------||
f||-------------------------------6---6-6---------------||
C||-------------------------4-------------4-4----4---4--|| play this very slow
G||--5--5--5--5--5---5--3-3---3-3--------------3---3----|| 
D||-----------------------------------------------------|| 
A||-----------------------------------------------------||

End Riff 1 "Wish, You were dead.."
a||--------------------------------||
f||--------------------------------|| 
C||--------------------------------||  
G||-2------------6--------5/4/3----|| 
D||-0------------6--------5/4/3----|| 
A||--------------4--------3/2/1----||

-------------------------------------------------------------------------
reproducciones 72
Acordes para:
    Composição: Korn Colaboración y revision:
    • leandro

    0 comentarios

    mostrar más comentarios

    ¿Conseguiste tocar?

    0 tocaron 0 aún no

    ¡Graba un vídeo tocando Kill You y envianoslo!

    00:00 / 00:00
    outros vídeos desta música
    repetir qualidade Automático
    Outros vídeos desta música
    00:00 / 00:00
    Automático
    OK