Cifra Club

Kill You

Korn

Tab de bajo: Principal
   
    INTRO
    
    F-------------------------------------------------|
    C-------------------------------------------------|
    G|------------------------------------------------|
    D|------------------------------------------------|
    A|--3x-333-x-333-x-333-x-333-2x-222-x-222-x-222-x-|
    
    
    PRE-CHORUS
    
    F---------------|
    C---------------|
    G|--------------|
    D|--------0-----|
    A|--3--2-----0--|
    
    
    CHORUS
    
    A|------------------------------------
    E|------------------------------------
    A|--X--X--X--X--X--X--X--X--X--X--X--X...
    
    	Keep the same rhythm as the drums
    
    
    BRIDGE
    
    A|--------------------------------|
    E|--------------------------------|
    A|--0--0--0--0--0--0--0--0--0--0--|
    
    
    OUTRO
    
    G|--9-------------------9--10--9---------12-----|
    D|-----10--9----------------------9--10---------|
    A|------------10--------------------------------|
    E|----------------7-----------------------------|
    A|-------------------0-----------------------0--|
    

_______________________________________________________
Contribuição: Gustavo(gustocamargo@hotmail.com)
reproducciones 13
Composição: Korn Colaboración y revision:
  • Gustavo Camargo

0 comentarios

mostrar más comentarios

¿Conseguiste tocar?

0 tocaron 0 aún no

¡Graba un vídeo tocando Kill You y envianoslo!

00:00 / 00:00
outros vídeos desta música
repetir qualidade Automático
Outros vídeos desta música
00:00 / 00:00
Automático
OK