Cifra Club

Lost

Korn

Cifrado: Principal (guitarra y guitarra eléctrica)
tono: G
7-string guitar tuned down a full step
Intro
||-------------------------------
||-------------------------------
||-------------------------------
||-12----------12------------12--
||-------------------------------
||-------------------------------
||-------------------------------
Intro 2
||-----------------------------
||-----------------------------
||-----------------------------
||-----------------------------
||-------------------------4-4-
||-----------------------------
||-3-3-3--2-2-2--3-3-3-2-2-2-2-
Verse-Fade in and out with the 12
||------------------
||------------------
||------------------
||-12---------------
||------------------
||------------------
||------------------
Bridge 1
||--------------------------
||--------------------------
||--------------------------
||--------------------------
||-10\9-9-10\9-9--9-9-10\9--
||--8\7-7--8\7-7--7-7--8\7--
||--------------------------
Bridge 2
||-------------------------
||-------------------------
||-------------------------
||-------------------------
||-------------------------
||-3\2-2--3\2-2--2-2--3\2--
||-1\0-0--1\0-0--0-0--1\0--
00:00 / 00:00
Otros videos de esta canción
Repetir
Otros videos de esta canción
Composición de Korn
Colaboración y revisión:
  • leandro
16 exhibiciones
    • ½ Tono
    • A
    • Bb
    • B
    • C
    • Db
    • D
    • Eb
    • E
    • F
    • F#
    • G
    • Ab
  • Agregar a la lista
    00:00 / 00:00
    OK