Cifra Club

Love And Meth

Korn

Tablatura: Principal (guitarra)
Tom: G
Tuning: A Standard (7 String) A D G C F a d

~ - Hold Note
/ - Slide-up


Riff 1 (Intro/Outro)
D|--------------------------------|
A|--------------------------------|
F|--------------------------------|
C|--------------------------------|
G|--------------------------------|
D|--------------------------------|
A|--8-0-8-0-8-0~--8-0-8-0-8-0-1/--| 

Riff 2 (Intro/Outro)
D|--------------------------------|
A|--------------------------------|
F|--------------------------------|
C|--------------------------------|
G|----------------------------9~--|
D|----------------------------8~--|
A|--8-0-8-0-8-0~--8-0-8-0-8-0-----|

Riff 3 (Verse)
D|-----------------------------|
A|-----------------------------|
F|-----------------------------|
C|-----------------------------|
G|-----------------------------|
D|--5---5---5---------5---5----|
A|----2---2---2--2--2---2---2--|

Riff 4 (Verse/Pre-Chorus)
D|---------------------------|
A|---------------------------|
F|---------------------------|
C|---------------------------|
G|---------------------------|
D|---------------------------|
A|--8-0-8-0-8-0--0-8-0-8-0---|

Riff 5 (Verse/Pre-Chorus)
D|--------------------------------|
A|--------------------------------|
F|--------------------------------|
C|--------------------------------|
G|--------------------------------|
D|--------------------------------|
A|--8-0-8-0-8-0--0-8-0-8-0--0-1/--|

Riff 6 (Chorus) Guitar-1
D|---------------------|
A|---------------------|
F|---------------------|
C|---------------------|
G|------6~-7~--4~------|
D|--4~--4~-5~--2~--5~--|
A|--2~-------------3~--|
                                                       \
Riff 7 (Chorus) Guitar-2                                | PLAYED TOGETHER
D|---------------------------------------------------| /
A|---------------------------------------------------|
F|---------------------------------------------------|
C|--11-11-11-11-11-11-11-11-11-11-11-11-11-11-11-11--|
G|---------------------------------------------------|
D|---------------------------------------------------|
A|---------------------------------------------------|x2

Riff 8 (Chorus) Guitar-2
D|---------------------------------------------------|
A|---------------------------------------------------|
F|---------------------------------------------------|
C|--16-16-16-16-16-16-16-16-16-16-16-16-16-16-16-16--|
G|---------------------------------------------------|
D|---------------------------------------------------|
A|---------------------------------------------------|

Riff 9 (Chorus) Guitar-2
D|---------------------------------------------------|
A|---------------------------------------------------|
F|---------------------------------------------------|
C|--18-18-18-18-18-18-18-18-18-18-18-18-18-18-18-18--|
G|---------------------------------------------------|
D|---------------------------------------------------|
A|---------------------------------------------------|

Riff 9 (Chorus) Guitar-2
D|---------------------------------------------------|
A|---------------------------------------------------|
F|---------------------------------------------------|
C|--18-18-18-18-18-18-18-18-16-16-16-16-16-16-16-16--|
G|---------------------------------------------------|
D|---------------------------------------------------|
A|---------------------------------------------------|

Riff 10 (Bridge)
D|---------------------------------------------------|
A|---------------------------------------------------|
F|---------------------------------------------------|
C|--18-18-18-18-18-18-18-18-18-18-18-18-18-18-18-18--|
G|---------------------------------------------------|
D|---------------------------------------------------|
A|---------------------------------------------------|

Riff 11 (Bridge)
D|---------------------------------------------------|
A|---------------------------------------------------|
F|---------------------------------------------------|
C|--19-19-19-19-19-19-16-16-16-16-16-16-16-16-16-16--|
G|---------------------------------------------------|
D|---------------------------------------------------|
A|---------------------------------------------------|

Riff 12 (Bridge)
D|-------------------------------|
A|-------------------------------|
F|-------------------------------|
C|-------------------------------|
G|-------------------------------|
D|--5---5---5---5----------------|
A|----2---2---2---2--2-2--3-0-2--|

Riff 13 (Bridge)
D|-------------------------------|
A|-------------------------------|
F|-------------------------------|
C|-------------------------------|
G|-------------------------------|
D|--5---5---5---5----------------|
A|----2---2---2---2--2-2--3-0-5--|

Riff 14 (Pre-Chorus)
D|---------------------------|
A|---------------------------|
F|---------------------------|
C|--11-11-11-11-11-11-11-11--|
G|---------------------------|
D|---------------------------|
A|---------------------------|

-------------------------------------------------------
reproducciones 117
Acordes para:
    Colaboración y revision:
    • Lucas

    0 comentarios

    mostrar más comentarios

    ¿Conseguiste tocar?

    1 tocaron 0 aún no

    ¡Graba un vídeo tocando Love And Meth y envianoslo!

    00:00 / 00:00
    outros vídeos desta música
    repetir qualidade Automático
    Outros vídeos desta música
    00:00 / 00:00
    Automático
    OK