Cifra Club

Mr. Rogers

Korn

Tablatura: Principal (guitarra)
Tom: C
Transcribed By Big

7-string guitar tuned down a full step
Intro      (all open notes ar palm muted on this riff)

D-----------------------------------------------------------------
A-----------------------------------------------------------------
F-----------------------------------------------------------------
C-----------------------------------------------------------------
G-----------------------------------------------------------------
D-----7-----7---7-----7-----7---8-----8-----8---8-----8-----8---7-
A-0-0---0-0---0---0-0---0-0---0---0-0---0-0---0---0-0---0-0---0---

Intro 2
D-----------------------------------------------------------
A------------------------------------------------------------
F------------------------------------------------------------
C----------14\13-----10\9------------------------------------
G------------------------------------------------------------
D----------12\11------8\7------------7/8-8-8-----------------
A-0-0-0-0---------0----------0-0-0---5/6-6-6-----------------




Pre-verse
D-----------------------------------------------------------------------------
A----------------------11-11-11--11-11-11------11-11-11-11-11-11-11-11--------
F-----------------------------------------------------------------------------
C-----------------------------------------------------------------------------
G-9---------------------------------------------------------------------------
D-8---------------------------------------------------------------------------
A-----------------------------------------------------------------------------

Verse                                  Bass arranged for Guitar
D----------------------------------     D-------------------------------------------------------
A------------7---6-----6^0---------     A-------------------------------------------------------
F----4------------------------4----     F------------------------------------------------------- 
C----------------------------------     C-------------------------------------------------------
G----------------------------------     G-------------------------------------------------------
D----------------------------------     D-7-7-7-7---7-7-7-7-------------------------------------
A----------------------------------     A--------------------7-7-7-7---6-6-6-6--0-0-6-6--6-6-0-0

be my neibor part... (guitar 1)
D-------------------------------------------------------------------
A------------------------------------0---------------0--------------
F------------------------------------0---------------0--------------
C-------------------------------------------------------------------
G-------------------------------------------------------------------
D-3----------3-----------9------8-8-----8------8-8------8-----8-----
A-1^0-0-0----1^0-0-0-----7------6-6-----6------6-6------6-----6-----



be my neighbour part ....(guitar 2)
D--12-----------------11------------------------11--------------------
A-------------10----------------------------------------------------
F--------------------------------4-----------------------------------
C-------------------------------------------------------------------
G-------------------------------------------------------------------
D-------------------------------------------------------------------
A-------------------------------------------------------------------

Bridge 
D--------------------------7-------|----------------------7------------
A---------7---------6--------------|----7----------6----------6--------
F-4--------------------------------|-4----------------------------4----
C----------------------------------|-----------------------------------
G----------------------------------|-----------------------------------
D----------------------------------|-----------------------------------
A----------------------------------|-----------------------------------

    I hate you part..........
D---------------------------------------------
A---------------------------------------------
F---------------------------------------------
C---------------------------------------------
G---------------------------------------------
D-2-2-----2---2-2----2-x-x-8------------------
A-0-0-----0---0-0----0-x-x-6------------------
reproducciones 29
Acordes para:
    Composição: Korn Colaboración y revision:
    • leandro

    0 comentarios

    mostrar más comentarios

    ¿Conseguiste tocar?

    0 tocaron 0 aún no

    ¡Graba un vídeo tocando Mr. Rogers y envianoslo!

    00:00 / 00:00
    outros vídeos desta música
    repetir qualidade Automático
    Outros vídeos desta música
    00:00 / 00:00
    Automático
    OK