Cifra Club

Narcissistic Cannibal

Korn

Tablatura: Principal (guitarra)
Tom: G
Riff 1 (Intro 1)
D|--------------------------------|
A|--------------------------------|
F|--13~---------------------------|
C|------16~------------------14~--|
G|----------16~--14-16-14-16------|
D|--------------------------------|
A|--------------------------------|

Riff 2 (Intro 1)
D|--------------------------------|
A|--------------------------------|
F|--13~---------------------------|
C|------16~------14h16-14h16-14~--|
G|----------16~-------------------|
D|--------------------------------|
A|--------------------------------|

Riff 3 (Intro 2/Pre-Verso/Outro)
D|---------------------------------------21-21-21-21-21--|
A|---------------------------------------24-24-24-24-24--|
F|-----------------4~--------------------^^-^^-^^-^^-^^--|
C|-----------------4~------------------------------------|
G|--22-4~----4~----2~-4~----22-4~----4~------------------|
D|--00-4~----4~-------4~----00-4~----4~------------------|
A|-----2~-22-2~-22----2~-22----2~-22-2~------------------|
          ..    ..       ..       ..

Riff 4 (Verso)
D|--------|
A|--------|
F|--------|
C|--------|
G|--------|
D|--------|
A|--2222--|
    ...

Riff 5 (Refrão 1/Outro)(Guitar 1)
D|-------------------------|
A|-------------------------|
F|--6~--4~-----------------|
C|--6~--4~-4~--2h4-2h4-2~--|
G|--4~--2~-4~--------------|
D|---------2~--------------|
A|-------------------------|

Riff 5.5 (Refrão 1/Outro)(Guitar 2)
D|-------------------------|
A|-------------------------|
F|-------------------------|
C|---------4~--------------|
G|--4~--2~-4~--------------|
D|--4~--2~-2~--0h2-0h2-0~--|
A|--2~--0~-----------------|

Riff 6 (Refrão 2/Outro)(Guitar 1)
D|--------------------------------|
A|--------------------------------|
F|--6~--4~/9~2~-------------------|
C|--6~--4~/9~2~-------2h4-2h4-2~--|
G|--4~--2~/7~0~-------------------|
D|---------------(2)--------------|
A|--------------------------------|

Riff 6.6 (Refrão 2/Outro)(Guitar 2)
D|--------------------------------|
A|---------3~---------------------|
F|---------4~2~-------------------|
C|---------2~2~-------2h4-2h4-2~--|
G|--4~--2~---0~-------------------|
D|--4~--2~-------(2)--------------|
A|--2~--0~------------------------|

************************************

0:00 - 0:21 = Riff 1 (Intro 1)
0:21 - 0:33 = Riff 2 (Intro 2)
0:33 - 0:57 = Riff 3 (Verso)
0:57 - 1:03 = Riff 4 (Refrão 1)
1:03 - 1:09 = Riff 5 (Refrão 2)
1:09 - 1:14 = Riff 4 (Refrão 1)
1:14 - 1:19 = Riff 5 (Refrão 2)
1:19 - 1:25 = Riff 2 (Pre-Verso)
1:25 - 1:50 = Riff 3 (Verso)
1:50 - 1:55 = Riff 4 (Refrão 1)
1:55 - 2:01 = Riff 5 (Refrão 2)
2:01 - 2:06 = Riff 4 (Refrão 1)
2:06 - 2:11 = Riff 5 (Refrão 2)
2:34 - 2:40 = Riff 4 (Refrão 1)
2:40 - 2:45 = Riff 5 (Refrão 2)
2:45 - 2:51 = Riff 4 (Refrão 1)
2:51 - 2:56 = Riff 5 (Refrão 2)
2:56 - End. = Riff 2 (Outro)
reproducciones 172
Acordes para:
    Composição: Jake Stanczak / Jonathan Davis / Sonny Moore Colaboración y revision:
    • Renan

    0 comentarios

    mostrar más comentarios

    ¿Conseguiste tocar?

    0 tocaram 0 aún no

    Grave um vídeo tocando Narcissistic Cannibal e mande pra gente!

    00:00 / 00:00
    outros vídeos desta música
    repetir qualidade Automático
    Outros vídeos desta música
    00:00 / 00:00
    Automático
    OK