Cifra Club

No Way

Korn

Cifrado: Principal (guitarra y guitarra eléctrica)
tono: F

Tuned Down One Half Whole Step (DGCFAd)

(Intro and Verse)

(Guitars 1 and 2)
d ||------15--14----------------|
A ||--12----------11------------|
F ||----------------------------|
C ||----------------------------|
G ||----------------------------|
D ||----------------------------|(With Flanger or Phaser)

(Guitar 1)
d ||----------------------------|
A ||----------------------------|
F ||--5--5--5--5--4-------------|
C ||--5--5--5--5--4-------------|
G ||--3--3--3--3--2-------------|
D ||----------------------------|(Distortion)

(Guitar 2)
d ||--15--15--15--15--14--------|
A ||----------------------------|
F ||--12--12--12--12--11--------|
C ||----------------------------|
G ||----------------------------|
D ||----------------------------|(With Flanger or Phaser)


(Bridge:Part Where Jon Sings..."To live this way...")

(Guitar 1 or 2)
d ||----------------------------||----------------------------|
A ||----------------------------||----------------------------|
F ||--4--9--11--7--12--11--4----||--4--9--11--7--11--12--4----|
C ||----------------------------||----------------------------|
G ||----------------------------||----------------------------|
D ||----------------------------||----------------------------|(Clean)

(Outro:See Bridge)
00:00 / 00:00
Otros videos de esta canción
Repetir
Otros videos de esta canción
Composición de Korn
53 exhibiciones
    • ½ Tono
    • A
    • Bb
    • B
    • C
    • Db
    • D
    • Eb
    • E
    • F
    • F#
    • G
    • Ab
  • Agregar a la lista
    00:00 / 00:00
    OK