Cifra Club

Oildale (Leave Me Alone)

Korn

Tablatura: Principal (guitarra)
Tom: C
Intro:
D|--------------------------------------------------|
A|--------------------------------------------------|
F|--------------------------------------------------|
C|--------------------------------------------------|
G|--------------------------------------------------|
D|--------------------------------------------------|
A|-0-333-0-333-0-333-444-1--0-333-0-333-0-333-444-1-|

D|-------------------------------------------------|
A|-------------------------------------------------|
F|-------------------------------------------------|
C|-------------------------------------------------|
G|-------------------------------------------------|
D|-------------------------------------------------|
A|-3-666-3-666-3-555-3-555-0-333-0-333-0-333-444-1-|

Pré-Refrão 2x:
D|------------------------------------------------|
A|------------------------------------------------|
F|------------------------------------------------|
C|------------------------------------------------|
G|------------------------------------------------|
D|------------------------------------------------|
A|-8-66-8-66-8-66-8-66-7-55-7-55-7-55-7-55--------|

Refrão:
D|--------------------------------------------------|
A|--------------------------------------------------|
F|--------------------------------------------------|
C|--------------------------------------------------|
G|--------------------------------------------------|
D|--------------------------------------------------|
A|-0-333-0-333-0-333-444-1--0-333-0-333-0-333-444-1-|

D|-------------------------------------------------|
A|-------------------------------------------------|
F|-------------------------------------------------|
C|-------------------------------------------------|
G|-------------------------------------------------|
D|-------------------------------------------------|
A|-3-666-3-666-3-555-3-555-0-333-0-333-0-333-444-1-|

D|-------------------------------------------------|
A|-------------------------------------------------|
F|---10--9---6----10--9---6------------------------|
C|----x--x---x-----x--x---x------------------------|
G|----8--7---4-----8--7---4------------------------|
D|-------------------------------------------------|
A|-------------------------------------------------|

D|--------------------------------------------------|
A|--------------------------------------------------|
F|--------------------------------------------------|
C|--------------------------------------------------|
G|--------------------------------------------------|
D|--------------------------------------------------|
A|-0-333-0-333-0-333-444-1--0-333-0-333-0-333-444-1-|

Ponte:
D|-------------------------------------------------|
A|-------------------------------------------------|
F|-------------------------------------------------|
C|-------------------------------------------------|
G|-5---5~~--5---5~~---5---5~~---5--4~--------------|
D|-5---5~~--5---5~~---5---5~~---5--4~--------------|
A|-3---3~~--3---3~~---3---3~~---3--2~--------------|

D|-----------------------------------------|
A|-----------------------------------------|
F|-----------------------------------------|
C|-----------------------------------------|
G|-5--7--8--4--5--5----7--8--4--4-5~--4-4~-|
D|-x--x--x--x--x--x----x--x--x--4-5~--4-4~-|
A|-3--5--6--2--3--3----5--6--2--2-3~--2-2~-|

D|--------------------------------------------------|
A|--------------------------------------------------|
F|--------------------------------------------------|
C|--------------------------------------------------|
G|--------------------------------------------------|
D|--------------------------------------------------|
A|-0-333-0-333-0-333-444-1--0-333-0-333-0-333-444-1-|

Refrão:
D|--------------------------------------------------|
A|--------------------------------------------------|
F|--------------------------------------------------|
C|--------------------------------------------------|
G|--------------------------------------------------|
D|--------------------------------------------------|
A|-0-333-0-333-0-333-444-1--0-333-0-333-0-333-444-1-|

D|-------------------------------------------------|
A|-------------------------------------------------|
F|-------------------------------------------------|
C|-------------------------------------------------|
G|-------------------------------------------------|
D|-------------------------------------------------|
A|-3-666-3-666-3-555-3-555-0-333-0-333-0-333-444-1-|

D|-------------------------------------------------|
A|-------------------------------------------------|
F|---10--9---6----10--9---6------------------------|
C|----x--x---x-----x--x---x------------------------|
G|----8--7---4-----8--7---4------------------------|
D|-------------------------------------------------|
A|-------------------------------------------------|

D|--------------------------------------------------|
A|--------------------------------------------------|
F|--------------------------------------------------|
C|--------------------------------------------------|
G|--------------------------------------------------|
D|--------------------------------------------------|
A|-0-333-0-333-0-333-444-1--0-333-0-333-0-333-444-1-|

Outro:
D|-----------------------------------------------------|
A|-----------------------------------------------------|
F|-----------------------------------------------------|
C|-----------------------------------------------------|
G|-----------------------------------------------------|
D|-----------------------------------------------------|
A|-0-33333-4-1~-0-33333-4-1~-0-33333-4-1~-0-33333-4-1~-|
reproducciones 68
Acordes para:
    Composição: Korn Colaboración y revision:
    • Vinicius Lacerda

    0 comentarios

    mostrar más comentarios

    ¿Conseguiste tocar?

    0 tocaron 0 aún no

    ¡Graba un vídeo tocando Oildale (Leave Me Alone) y envianoslo!

    00:00 / 00:00
    outros vídeos desta música
    repetir qualidade Automático
    Outros vídeos desta música
    00:00 / 00:00
    Automático
    OK