Cifra Club

One

Korn

Tablatura: Principal (guitarra)
Tom: G
|------------|------------|------------|---------------|
|------------|------------|------------|---------------|
|------------|------------|------------|-------------0-|
|----4-----0-|----4-----0-|----4-----0-|----4-----0----|
|-2-----2----|------------|-2-----2----|---------------|
|------------|-3-----3----|------------|-3-----3-------|

|------------|------------|------------|------------|
|------------|------------|------------|------------|
|------------|------------|------------|------------|
|----4-----0-|----4-----0-|----4-----0-|------------|
|-2-----2----|-0-----0----|------------|----2-----2-|
|------------|------------|-3-----3----|-0-----2----|


|----------------|---------------------|-----------------------------|
|----------------|-3p2---3p2---3-3p2---|-----------------------------|
|-----2-4b(full)-|-----4-----2-------4-|-11p9----9p7-7p6-6p4-2-2/4---|
|-2h4------------|---------------------|-----12----------------------|
|----------------|---------------------|-----------------------------|
|----------------|---------------------|-----------------------------|


|----------|--------------|
|----2h3-2-|----2-2h3-----|
|-/4-------|-/4-------2/4-|
|----------|--------------|
|----------|--------------|
|----------|--------------|

|-------------------|---------------|---------------|---------------|------------|
|-------------------|---------------|---------------|---------------|------------|
|-------------------|---------------|---------------|---------------|------------|
|-------------------|---4---0-0-4-0-|---4---0-0-4-0-|---4---0-0-4-0-|---4---0----|
|---2---2---2-2h4-2-|-2---2---------|---------------|-2---2---------|------------|
|-0---2---0---------|---------------|-3---3---------|---------------|-3---3---/5-|
                     I can´t remember anything...

|---------------|---------------|---------------|---------|---------------|
|---------------|---------------|---------------|---------|---------------|
|---------------|-------------0-|---------------|---------|---------------|
|---4---0-0-4-0-|---4---0-0-4---|---4---0-0-4-0-|---------|---------------|
|-2---2---------|-0---0---------|---------------|---2---2-|---4---0-0-4-0-|
|---------------|---------------|-3---3---------|-0---2---|-2---2---------|


|---------------|---------------|------------|---------------|---------------|---------------|---------|
|---------------|---------------|------------|---------------|---------------|---------------|---------|
|---------------|---------------|------------|---------------|-------------0-|---------------|---------|
|---4---0-0-4-0-|---4---0-0-4-0-|---4---0----|---4---0-0-4-0-|---4---0-0-4---|---4---0-0-4-0-|---------|
|---------------|-2---2---------|------------|-2---2---------|-0---0---------|---------------|---2---2-|
|-3---3---------|---------------|-3---3---/5-|---------------|---------------|-3---3---------|-0---2---|
                                                                        nothing is real but pain now...

|--------------------------------------------------|
|--------------------------------------------------|
|-0-------2-0-2-0-------0-0-2---------0/0\0-0------|
|-0-------0-4-0-0-------0-4-0---------4/6\4-5------|
|-5-------0-2-0-5-------4-2-0---------2/4\2-3--3-4-|
|-3-------0-0-0-3-------2-0-0---------0/0\0-0------|
hold  my breath as i  wish for death    Oh please god wake me   

->ponte
|-------------------------------------------|
|-------------------------------------------|
|-0--0-0-0-0--0--0-0-0-0--0--0-0-0-0--0-----|
|-0--0-0-0-0--0--0-0-0-0--4--4-4-4-4--0-----|
|-5--3-5-5-5--4--4-4-4-4--2--2-2-2-2--4---2-|
|-3--3-3-3-3--2--2-2-2-2--------------2-----|

|---------------|---------------|---------------|------------|
|---------------|---------------|---------------|------------|
|---------------|---------------|---------------|------------|
|---4---0-0-4-0-|---4---0-0-4-0-|---4---0-0-4-0-|---4---0----|
|-2---2---------|---------------|-2---2---------|------------|
|---------------|-3---3---------|---------------|-3---3---/5-|
 Back in the womb it's much to real...

|---------------|---------------|---------------|---------|---------------|
|---------------|---------------|---------------|---------|---------------|
|---------------|-------------0-|---------------|---------|---------------|
|---4---0-0-4-0-|---4---0-0-4---|---4---0-0-4-0-|---------|---------------|
|-2---2---------|-0---0---------|---------------|---2---2-|---4---0-0-4-0-|
|---------------|---------------|-3---3---------|-0---2---|-2---2---------|


|---------------|---------------|------------|---------------|---------------|---------------|---------|
|---------------|---------------|------------|---------------|---------------|---------------|---------|
|---------------|---------------|------------|---------------|-------------0-|---------------|---------|
|---4---0-0-4-0-|---4---0-0-4-0-|---4---0----|---4---0-0-4-0-|---4---0-0-4---|---4---0-0-4-0-|---------|
|---------------|-2---2---------|------------|-2---2---------|-0---0---------|---------------|---2---2-|
|-3---3---------|---------------|-3---3---/5-|---------------|---------------|-3---3---------|-0---2---|
                                                                           cut this life off from me...

|--------------------------------------------------|
|--------------------------------------------------|
|-0-------2-0-2-0-------0-0-2---------0/0\0-0------|
|-0-------0-4-0-0-------0-4-0---------4/6\4-5------|
|-5-------0-2-0-5-------4-2-0---------2/4\2-3--3-4-|
|-3-------0-0-0-3-------2-0-0---------0/0\0-0------|
hold  my breath as i  wish for death    Oh please god wake me 

->ponte
|---------------------------------------|
|---------------------------------------|
|-0-----------0-----------0-----------0-|
|-0-----------0-----------4-----------0-|
|-5-----------4-----------2-----------4-|
|-3-----------2-----------------------2-|


|-------------------------------|-/10-8-7----7h8p7---|
|-10p7---7-10--10-8-7---7h8p7---|---------10-------8-|
|------7--------------9-------7-|--------------------|
|-------------------------------|--------------------|
|-------------------------------|--------------------|
|-------------------------------|--------------------|


|-17p14----14-17--17-15-14-15p14-----------15-17--19p17p17-19p17p15-19p17p15-14-15----14----|
|-------15-----------------------15--15-19-----------------------------------------17----15-|
|-------------------------------------------------------------------------------------------|
|-------------------------------------------------------------------------------------------|
|-------------------------------------------------------------------------------------------|
|-------------------------------------------------------------------------------------------|

|----------------------------------------------------|
|----------------------------------------------------|
|-0-------2-0-2-0---------0-0-2---------0/0\0-0------|
|-0-------0-4-0-0---------0-4-0---------4/6\4-5------|
|-5-------0-2-0-5---------4-2-0---------2/4\2-3--3-4-|
|-3-------0-0-0-3---------2-0-0---------0/0\0-0------|
Now  the world is gone  I'm just one             Oh god help me

|--------------------------------------------------|
|--------------------------------------------------|
|-0-------2-0-2-0-------0-0-2---------0/0\0-0------|
|-0-------0-4-0-0-------0-4-0---------4/6\4-5------|
|-5-------0-2-0-5-------4-2-0---------2/4\2-3--3-4-|
|-3-------0-0-0-3-------2-0-0---------0/0\0-0------|
hold  my breath as i  wish for death    Oh please god help me 

|---------|------------|------------|------------|------------|
|---------|------------|------------|------------|------------|
|---------|------------|------------|------------|------------|
|-2-0-2-0-|-5--5-5-5-5-|-4--4-4-4-4-|-4--4-x-4-x-|-5--5-x-5-x-|
|-3-2-3-0-|-7--7-7-7-7-|-5--5-5-5-5-|-2--2-x-2-x-|-3--3-x-3-x-|
|---------|------------|------------|------------|------------|

|------------|------------|------------|------------|
|------------|------------|------------|------------|
|------------|------------|------------|------------|
|-5--5-5-5-5-|-4--4-4-4-4-|-4--4-x-4-x-|-5--5-x-5-x-|
|-7--7-7-7-7-|-5--5-5-5-5-|-2--2-x-2-x-|-3--3-x-3-x-|
|------------|------------|------------|------------|

|------------|------------|------------|------------|
|------------|------------|------------|------------|
|------------|------------|------------|------------|
|-5--5-5-5-5-|-x--x-x-x-4-|-4--4-x-4-x-|-5--5-x-5-x-|
|-7--7-7-7-7-|-x--x-x-x-2-|-2--2-x-2-x-|-3--3-x-3-x-|
|------------|------------|------------|------------|

|------------|------------|------------|------------|--------|
|------------|------------|------------|------------|--------|
|------------|------------|------------|------------|--------|
|-5--5-5-5-5-|-x--x-x-x-4-|-4--4-x-4-x-|-5--5-x-5-x-|-5--(5)-|
|-7--7-7-7-7-|-x--x-x-x-2-|-2--2-x-2-x-|-3--3-x-3-x-|-7--(7)-|
|------------|------------|------------|------------|--------|


|---------------|-----------------|-------------------|-----------------|-----------------|
|---------------|-----------------|-------------------|-----------------|-----------------|
|---------------|-----------------|-------------------|-----------------|-----------------|
|-------------2-|-------------2-3-|-------------2-(2)-|-------------2-3-|-------------2-3-|
|-------------2-|-------------2-3-|-------------2-(2)-|-------------2-3-|-------------2-3-|
|-0-0-0-0-0-0---|-0-0-0-0-0-0-----|-0-0-0-0-0-0-------|-0-0-0-0-0-0-----|-0-0-0-0-0-0-----|
            (4x)|     
            
|---------------|---------------|---------------|-----------------|
|---------------|---------------|---------------|-----------------|
|---------------|---------------|---------------|-----------------|
|-------------2-|-------------2-|-------------2-|-------------2-3-|
|-------------2-|-------------2-|-------------2-|-------------2-3-|
|-0-0-0-0-0-0---|-0-0-0-0-0-0---|-0-0-0-0-0-0---|-0-0-0-0-0-0-----|
  Dark-ness      imprisoning me  all that I see  absolute  hor-ror
I can-not live I can-not die Trapped in my-self body my holdind cell!

|-----------------------------------|------------------------------------|
|-----------------------------------|------------------------------------|
|-----------------------------------|------------------------------------| 
|-------------7-(7)-------------7/8-|-------------5-(5)-------------5/8--|
|-------------7-(7)-------------7/8-|-------------5-(5)-------------5/8--| <-2x
|-0-0-0-0-0-0-------0-0-0-0-0-0-----|-0-0-0-0-0-0-------0-0-0-0-0-0------|

|---------------|---------------|---------------|-----------------|
|---------------|---------------|---------------|-----------------|
|---------------|---------------|---------------|-----------------|
|-------------2-|-------------2-|-------------2-|-------------2-3-|
|-------------2-|-------------2-|-------------2-|-------------2-3-|
|-0-0-0-0-0-0---|-0-0-0-0-0-0---|-0-0-0-0-0-0---|-0-0-0-0-0-0-----|
Land-mine     has taken my sight taken my speech   taken my  hear-ing
Taken my arms    taken my legs    taken my soul   left me with life in...

|---------------|---------------|-----------|
|---------------|---------------|-----------|
|---------------|---------------|-----------|
|-------------2-|-------------2-|--------3--|
|-------------2-|-------------2-|--------3--|
|-0-0-0-0-0-0---|-0-0-0-0-0-0---|--0-0-0----|(4x)
hell!

A musica termina com a bateria!

Agradecimentos - Felipe Araújo(Banda A.T.E.O.)
reproducciones 69
Acordes para:
    Composição: James Hetfield / Lars Ulrich Colaboración y revision:
    • Ramon Amaro

    0 comentarios

    mostrar más comentarios

    ¿Conseguiste tocar?

    1 tocaram 0 aún no

    Grave um vídeo tocando One e mande pra gente!

    00:00 / 00:00
    outros vídeos desta música
    repetir qualidade Automático
    Outros vídeos desta música
    00:00 / 00:00
    Automático
    OK