Cifra Club

Reclain My Place

Korn

Tablatura: Principal (guitarra)
Tom: C
7-string guitar tuned down 1 whole step 
(low to high: A D G C F A D)
Riff A       b-bend  
  
|--------------------------------------
|--------------------------------------
|--------------------------------------
|--------------------------------------
|--------------------------------------
|-------------99988877-----------
|-00--000--------------------------
Riff B
|--------------------------------------------------------
|--------------------------------------------------------
|--------------------------------------------------------
|---------------------11-11-11-10-10-10-9-9--------------
|---------------------11-11-11-10-10-10-9-9--------------
|--22---222---------9--9---9---8---8---8-7-7-------------
|--00---000----------------------------------------------

Riff C
|--------------------------------------------------------------
|--------------------------------------------------------------
|--------------------------------------------------------------
|--------------------------------------------------------------
|-----4s-5s-4s-3s-4s-----------4s-5s-4s-3----------------------
|-2s-4s-5s-4s-3s-4s----2-2s-4s-5s-4s-3-------------------------
|-0s-2s-3s-2s-1s-2s----0-0s-2s-3s-2s-1-------------------------

Riff Da              Riff Db
|--------------------------------------------||---------------
|-------13----12----11----10-----------------||---------------
|------------------------------------10------||---------------
|---10----10----10----10---------------------||----18b--------
|--------------------------------------------||---------------
|--------------------------------------------||---------------
|--------------------------------------------||---------------

Riff E   
|----------------------------------------------------------------
|----------------------------------------------------------------
|----------------------------------------------------------------
|----------------------------------------------------------------
|--------------------------------555s---44s--3-------------------
|--------------------------------555s---44s--3-------------------
|-----22---222----------------333s---22s--1----------------------
|-----00---000---------------------------------------------------
Riff A x4
Riff B x8
Riff C x4
Riff B x8
Riff C x4
Riff B x8
Riff Da x2
Riff Db x4
Riff C x8
Riff B x8
Riff A x8
Riff B x8
Riff E x8

-------------------------------------------------------------------------------------

Tuning: Whole Step Down (DGCFAD)

Fig1 (Chorus and Intro riff)
|-----10-10s9s8s7----|
|--------------------|
|------7-7s6s5s4-----|
|-9-9----------------|
|-9-9----------------|
|-7-7----------------|
Fig2 (Verse riff)
Both Guitars 
|-------------------------------|
|-------------------------------|
|-11-------------11-------------|
|-10-------------10-------------|
|-9--11s12-10-9--9--11s12--10---|
|-----9s10--8-7------9s10---8---|
Fig2
Fig1
Fig2
Fig1
Fig3
Fig4
Fig5
Fig2
Fig1
reproducciones 24
Acordes para:
    Composição: Korn

    0 comentarios

    mostrar más comentarios

    ¿Conseguiste tocar?

    0 tocaron 0 aún no

    ¡Graba un vídeo tocando Reclain My Place y envianoslo!

    00:00 / 00:00
    outros vídeos desta música
    repetir qualidade Automático
    Outros vídeos desta música
    00:00 / 00:00
    Automático
    OK