Cifra Club

Aprenda

Right Now

Korn

Tablatura: Principal (guitarra)
Tom: E
Chorus and intro:
D|-----------------------------------------------
A|-----------------------------------------------
F|-----------------------------------------------
C|-----------------------------------------------
G|-----------5------------4-----------3----------
D|-----------3------------2-----------1----------
A|-0-0-1-0-x----0-0-1-0-x---0-0-1-0-x---0-0-1-0--

Verse:
D|----------------------
A|----------------------
F|----------------------
C|----------------------
G|----------------------
D|----------------------
A|-0-0-1-0---0-0-0-0-1-0

Bidge/interlude This is done by munky with some weird effects maybe flanger with a 
pedal im not sure it is weird so ull have to figure it out ill tell u when i see them 
live to see if he does play it there i think he does but not sure.
C|-------
G|-------6-when pedal is depressed down
D|-------6
A|-4-4-5-4

Interlude every once in a while maybe twice munky uses his effect that goes down a lot.
C|--------
G|--------
D|-6-6-7-6 
A|-4-4-5-4

Outro:
D|-------------
A|-------------
F|-------------
C|-------------
G|-------------
D|-------------
A|-0-0-0-0-1-0-

Outro:  the 1 might be a power chord but I doubt it.
D|-----------2
A|-0-0-0-0-1-0
Compositor Brian Welch / David Silveria / James Shaffer / Jonathan Davis / Korn / Reginald Arvizu
Colaboración y revision:
  • leandro santos
433 reproducciones
    • ½ Tom
    • A
    • Bb
    • B
    • C
    • Db
    • D
    • Eb
    • E
    • F
    • F#
    • G
    • Ab
  • Adicionar à lista

    0 comentarios

    Mostrar mais comentários

    ¿Conseguiste tocar?

    4 Tocaron 0 Ainda não

    Grave um vídeo tocando Right Now e mande pra gente!

    00:00 / 00:00
    outros vídeos desta música
    repetir qualidade Automático
    Outros vídeos desta música
    00:00 / 00:00
    Automático
    OK