Cifra Club

Aprenda

Somebody Someone

Korn

Tablatura: Principal (guitarra)
Tom: G
Versão 1
-======-

Versão para guitarra de 6 cordas:

(Guitars 1 & 2)
Intro/Verse (Clean)
e|-------------11-------11-13-10-
B|----12----12-------12----------
G|-12----12-------12-------------
D|-------------------------------  repeat 4x
A|-------------------------------
E|-------------------------------

(Guitars 1 & 2)
Intro/Pre-Chorus (Distorted)
e|------------------------
B|------------------------
G|------------------------
D|--------9--------9---10-  repeat 4x
A|------------------------
E|-7-7--7---7-7--7---7----

(Guitar 1)
Verse (Slighty distorted with some wah-sounding effect)
e|---------------------
B|---------------------
G|-0-4--4-4~-0-4--4-4~-
D|-*-*--*----*-*--*----  repeat 8x
A|---------------------
E|---------------------

(Guitar 2)
Verse (Clean)
e|-------------11-------11-13-10-
B|----12----12-------12----------
G|-12----12-------12-------------
D|-------------------------------  repeat 8x
A|-------------------------------
E|-------------------------------

(Guitars 1 & 2)
Chorus
e|-------------------------------|--------------------------------------
B|-------------------------------|--------------------------------------
G|-------------------------------|--------------------------------------
D|-4--8--7--5--4/5\\4-4--8--7--3-|-4/5\\4-4--8--7--5--4/5\\4-4--8--7--3-
A|-2--6--5--3--2/3\\2-2--6--5--1-|-2/3\\2-2--6--5--3--2/3\\2-2--6--5--1-
E|-------------------------------|--------------------------------------

(Guitar 1)
Bridge (Clean with a flange/echo effect)
e|--------------------------------------------------------
B|--------------------------------------------------------
G|--------7-------------7-------------7--------6---6------
D|-8/9-99---999--8/9-99---999--8/9-99---999--8---8--------
A|-------------------------------------------------------- repeat 4x
E|-------------------------------------------------------- then
this part is tricky, make sure you pick the notes fastly

e|--------------------------------------------------------
B|--------------------------------------------------------
G|--------7-------------7-------------7--------6----------
D|-8/9-99---999--8/9-99---999--8/9-99---999--8---8--------
A|--------------------------------------------------------
E|--------------------------------------------------------

(Guitars 1 & 2)
OUTRO Slow/Heavy Part (Thick Distortion)         repeat 14x
e|-------------------------------------------------|-4-------------
B|-------------------------------------------------|-3-------------
G|------------------2------------------------------|-1-------------
D|-----0------------0------------------------------|-0-------------
A|-1/2---2--1/2-2-2---1----------------------------|---------------
E|-------------------------------------------------|---------------
                                                       let chord ring

Não sei se ficou bem certinho,mas acho que é isso...qualquer coisa me mandem email.

_______________________________________________________






Versão 2
-======-

arranged for 7-string

Tuned Down One Whole Step (ADGCFAd)

(Guitars 1 & 2)
Intro/Verse (Clean)
d ||----------13-----13-15-12-----------------
A ||---14--14-----14--------------------------
F ||-13--13-----13----------------------------
C ||------------------------------------------  repeat 4x
G ||------------------------------------------
D ||------------------------------------------
A ||------------------------------------------

I\'m not sure if this part is 100% correct, but it works..


(Guitars 1 & 2)
Intro/Pre-Chorus (Distorted)
d ||------------------------------------------
A ||------------------------------------------
F ||------------------------------------------
C ||------------------------------------------
G ||--------4~--------4~---5~-----------------
D ||------------------------------------------  repeat 4x
A ||-2-2--2----2-2--2----2--------------------

~ = bend string all the way up and back down
on the last part (on the 5) don\'t bend back down

(Guitar 1)
Verse (Slighty distorted with some wah-sounding effect)
d ||------------------------------------------
A ||------------------------------------------
F ||------------------------------------------
C ||------------------------------------------  repeat 8x
G ||--0-4--4-4~-0-4--4-4~---------------------
D ||--***--*----***--*------------------------
A ||------------------------------------------
* = palm mute


(Guitar 2)
Verse (Clean)
d ||----------13-----13-15-12-----------------
A ||---14--14-----14--------------------------
F ||-13--13-----13----------------------------
C ||------------------------------------------  repeat 8x
G ||------------------------------------------
D ||------------------------------------------
A ||------------------------------------------


(Guitars 1 & 2)
Chorus
d ||------------------------------|------------------------------------
A ||------------------------------|------------------------------------
F ||------------------------------|------------------------------------
C ||------------------------------|------------------------------------
G ||------------------------------|------------------------------------
D ||-4--8--7--5--4/5\\4-4--8--7--3-|-4/5\\4-4--8--7--5--4/5\\4-4--8--7--3-
A ||-2--6--5--3--2/3\\2-2--6--5--1-|-2/3\\2-2--6--5--3--2/3\\2-2--6--5--1-


(Guitar 1)
Bridge (Clean with a flange/echo effect)
d ||--------------------------------------------------------
A ||--------------------------------------------------------
F ||--------------------------------------------------------
C ||--------------------------------------------------------
G ||--------7-------------7-------------7--------6---6------
D ||-8/9-99---999--8/9-99---999--8/9-99---999--8---8-------- repeat 4x
A ||-------------------------------------------------------- then
this part is tricky, make sure you pick the notes fastly

d ||--------------------------------------------------------
A ||--------------------------------------------------------
F ||--------------------------------------------------------
C ||--------------------------------------------------------
G ||--------7-------------7-------------7--------6----------
D ||-8/9-99---999--8/9-99---999--8/9-99---999--8---8-------- 
A ||-------------------------------------------------------- 


(Guitars 1 & 2)
OUTRO Slow/Heavy Part (Thick Distortion)         repeat 14x
d ||-------------------------------------------------|---------------
A ||-------------------------------------------------|---------------
F ||-------------------------------------------------|-3-------------
C ||-------------------------------------------------|-2-------------
G ||------------------2------------------------------|-1-------------
D ||-----0------------0------------------------------|-0-------------
A ||-1/2---2--1/2-2-2---1----------------------------|---------------
                                                       let chord ring
Compositor Brian Welch / David Silveria / James Schaffer / Jonathan Davis / Reggie Arvizu
Colaboración y revision:
  • Tiago Leon
338 reproducciones
    • ½ Tom
    • A
    • Bb
    • B
    • C
    • Db
    • D
    • Eb
    • E
    • F
    • F#
    • G
    • Ab
  • Adicionar à lista

    0 comentarios

    Mostrar mais comentários

    ¿Conseguiste tocar?

    0 Tocaron 0 Ainda não

    Grave um vídeo tocando Somebody Someone e mande pra gente!

    00:00 / 00:00
    outros vídeos desta música
    repetir qualidade Automático
    Outros vídeos desta música
    00:00 / 00:00
    Automático
    OK