Cifra Club

Swallow

Korn

Tablatura: Principal (guitarra)
Tom: A
7-string guitar tuned down a full step
Intro
------------------------
------------------------
------------------------
------------------------
-4---4----------2-------
--------------5-2-2/3-4-
--2-2--2--2-2-3-0-0/1-2-
Bass verse
---------------------------------------------
---------------------------------------------
---------------------------------------------
---------------6/7/8-------------------------
---------8-7-6-------6/7/8---------8-7-6-----
-6--5-----------------------6--5-------------
------5\-------------------------5\------2/5-
Guitar 1-verse
---------------------------------------------
------15-------------------------------------
---------------------------------------------
---------------------------------------------
---------------------------------------------
---------------------------------------------
---------------------------------------------
Guitar 2-verse
---------------------------------------------
-14^~~~~~~~~~~~~~~~~~~~~~~~~~~~--------------
---------------------------------------------
---------------------------------------------
---------------------------------------------
---------------------------------------------
---------------------------------------------
Chorus same as intro
Bridge
----------------------
----------------------
----------------------
----------------------
----------------------
-3-3-3--3-3-3-4-3-3-3-
-1-1-1--1-1-1-2-1-1-1-
Outro
Random muted notes and pick scrapes
reproducciones 31
Acordes para:
    Composição: Korn Colaboración y revision:
    • leandro

    0 comentarios

    mostrar más comentarios

    ¿Conseguiste tocar?

    0 tocaron 0 aún no

    ¡Graba un vídeo tocando Swallow y envianoslo!

    00:00 / 00:00
    outros vídeos desta música
    repetir qualidade Automático
    Outros vídeos desta música
    00:00 / 00:00
    Automático
    OK