Cifra Club

System

Korn

Tablatura: Principal (guitarra)
Tom: C
Drop Db
* isso está em drop Db! This is in Drop Db!
Gtr 1 (sounds like a bass, but is a guitar) Intro/verses/outro 
|--------------------------------------------------------------------|
|--------------------------------------------------------------------|
|--------------------------------------------------------------------|
|---------2---1------------1---1------------2---1----------0---------|
|-0-2-0-2---2--2---2-3-2-3---2---2--0-2-0-2---2--2--2-3-2-3--2-3-2---|
|--------------------------------------------------------------------|

isso está em afinação padrão! This is in Standard Tune!
Gtr 2
intro\last chorus\outro lead
|-------5----3----------------------5----3-------------------------|
|----------------5---6---5--3---2-----------5---6----5--3------2---|
|---2--------------------------------------------------------------|
|------------------------------------------------------------------|
|------------------------------------------------------------------|
|------------------------------------------------------------------|

verse 1  lead  
|----5-----3------5----3-------5------3--------------------|
|-----------------------------------------5----6---5---3--2|
|----------------------------------------------------------|
|----------------------------------------------------------|
|----------------------------------------------------------|
|----------------------------------------------------------|

chorus                                    ends on
|--------------------------------------| |---|
|--------------------------------------| |---|
|---2--------3--------3\5-3------------| |-2-|let ring
|---x--(16x)-x--(8x)---x-x-x-----------| |-x-|
|---0--------1--------1\3-1------------| |-0-|
|--------------------------------------| |---|


lead before verse 2
|--5----3----------------------5-----3---------------------|
|----------5----6---5--3---2----------------5--6--5----3--2|
|----------------------------------------------------------|
|----------------------------------------------------------|
|----------------------------------------------------------|
|----------------------------------------------------------|

verse 2  lead  
|----5-----3------5----3-------5------3--------------------|
|-----------------------------------------5----6---5---3--2|
|----------------------------------------------------------|
|----------------------------------------------------------|
|----------------------------------------------------------|
|----------------------------------------------------------|

Bridge
|--------------------------------------|
|--------------------------------------|
|-----------6------7--5------7---------|
|---7-------6------7--5------7---------|
|---7-------4------5--3------5---------|
|---5----------------------------------|
reproducciones 39
Acordes para:
    Colaboración y revision:
    • Mário Ricardo

    0 comentarios

    mostrar más comentarios

    ¿Conseguiste tocar?

    0 tocaron 0 aún no

    ¡Graba un vídeo tocando System y envianoslo!

    00:00 / 00:00
    outros vídeos desta música
    repetir qualidade Automático
    Outros vídeos desta música
    00:00 / 00:00
    Automático
    OK