Cifra Club

Twist

Korn

Tablatura: Principal (guitarra)
Tom: D

Very easy rythym

6-string twangdoodle tuned (AGCFAD)     *A* tuned super low (7-string effect)

Guitar 1 plays rythym chords    >=slide upwards    <=slide downwards
                                        
D :-----------------------------------------------------------
A :---------10>12----------11<9----------10>12----------11<9--
C :-----------------------------------------------------------
F :----------8>10-----------9<7-----------8>10-----------9<7--
G :-----------------------------------------------------------
A :-0-0-0-0--------0-0-0-0-------0-0-0-0--------0-0-0-0-------

Guitar 2 plays rythym and funky effect
D :-----------------------18-------------------------------------
A :---------10>12------------17----------10>12----------14>16<14-
C :--------------------15----------------------------------------
F :----------8>10-------------------------8>10-------------------
G :--------------------------------------------------------------
A :-0-0-0-0----------------------0-0-0-0-------------------------

Both guitars play chorus
D :-------------------------------------------------
A :---------9-----------9-----------9-----------9---
C :-------------------------------------------------
F :---------7-----------7-----------7-----------7---
G :-------------------------------------------------
A :-0-0-0-------0-0-0-------0-0-0-------0-0-0-------

Both guitars play ending chorus (a little different)
D :---------------------------------------------
A :---------9-----------9-----------9-----------
C :---------------------------------------------
F :---------7-----------7-----------7-----------
G :---------------------------------------------
A :-0-0-0------0-0-0-0--------0-0-------0-0-0-0-





--------------------------------------------------------------

7-string guitar tuned down a full step

verses
---------------------------------
-------9/11-11---------9/11/-8---
---------------------------------
-------7/-9/10---------7/-9/-6---Not sure about this part
---------------------------------
---------------------------------
-0-0-0----------0-0-0------------

Chorus
----------------------
-------9------------9-
----------------------
-------7------------7-
----------------------
----------------------
-0-0-0----0---0-0-0---
reproducciones 70
Acordes para:
    Composição: Korn

    0 comentarios

    mostrar más comentarios

    ¿Conseguiste tocar?

    0 tocaron 0 aún no

    ¡Graba un vídeo tocando Twist y envianoslo!

    00:00 / 00:00
    outros vídeos desta música
    repetir qualidade Automático
    Outros vídeos desta música
    00:00 / 00:00
    Automático
    OK