Cifra Club

Word up

Korn

Tablatura: Principal (guitarra)
Tom: A
Obs.: a música toda fica em .... (F#m , E , D , E , F#m 

Yo, pretty ladies around the world 
Gotta a weird thing to show you 
So tell all the boys and girls 
Tell your brother, your sister and your momma too 
Were about to go down 
And you know just what to do 
Wave your hands in the air like you don't care 
Glide by the people as they start to look and stare 
Do your dance, Do your dance 
Do your dance quick, mom 

[Refrão:] 
C'mon baby tell me what's the word 
Now, word up 
(ahh ahh) 
Everybody say 
When you hear the call you got to get it under way 
Word up 
(ahh ahh) 
It's the call, word 
No matter where you say it 
You know that you'll be heard 

Now all you sucker DJs 
Who think you're fly 
There's got to be a reason 
And we know the reason why 
You try to put on those airs 
And act real cool 
But you got to realize 
That you're acting like fools 
If there's music, we can use it 
Be free to dance 
We don't have the time for psychological romance 
No romance, no romance 
No romance for me, mom 

[Refrão:] 
C'mon baby tell me what's the word 
Now, word up 
(ahh ahh) 
Everybody say 
When you hear the call you got to get it under way 
Word up 
(ahh ahh) 
It's the call, word 
No matter where you say it 
You know that you'll be heard 
(woo!) 

[Refrão:] 
Word up 
(ahh ahh) 
Everybody say 
When you hear the call you got to get it under way 
Word up 
(ahh ahh) 
It's the call, word 
No matter where you say it 
You know that you'll be heard 

Word up 
(ahh ahh) 
Everybody say 
When you hear the call you got to get it under way 
Word up 
(ahh ahh) 
It's the call, word 
No matter where you say it 
You know that you'll be heard


Tablatura
-=======-

Word Up


   
      
         
       
Deletar abobrinha. 


--------------------------------------------------------------------------------
Intro
d-------------------------------------------|
a-------------------------------------------|
f-------------------------------------------|
c-------2---2~-----4~-2-1~------2-----------|
g---4~----4------4----------4~----4-4~-2-4~-|
d-------------------------------------------|
a-------------------------------------------|

Base do Vocal

d------------------------------------------|
a------------------------------------------|
f------------------------------------------|
c------------------------------------------|
g------------------------------------------|
d--4-4---2-2---7---7-9-----4-4----4--------|
a--2-2---0-0---5---5-7---0-2-2--0-2--------|

Refrão 

d-------------------------------------------------|
a-------------------------------------------------|
f---11---12-12-12---10-10-10--9-------------------|
c---11---11-11-11---9--9--9---9-------------------|
g---11---11-11-11---9--9--9---9---7-9-------------|
d---9----9--9--9----7--7--7---7---5-7-----4-4---4-|
a---------------------------------------0-2-2-0-2-|

Variação

d------------------------------------------|
a------------------------------------------|
f------------------------------------------|
c------------------------------------------|
g------------------------------------------|
d------------------------------------------|
a--0-2-2--02--02--02--3~-------------------|

Final 

d------------------------------------------|
a------------------------------------------|
f------------------------------------------|
c------------------------------------------|
g------------------------------------------|
d--4-4---7--7-7--6-6--4------4-4-4---4-----|
a--2-2---5--5-5--4-4--2----0-2-2-2-0-2-----|
reproducciones 187
Acordes para:
    Composição: Larry Blackmon / Tomi Jenkins Colaboración y revision:
    • Pedro Cintra
    • Herbert lima

    0 comentarios

    mostrar más comentarios

    ¿Conseguiste tocar?

    3 tocaron 0 aún no

    ¡Graba un vídeo tocando Word up y envianoslo!

    00:00 / 00:00
    outros vídeos desta música
    repetir qualidade Automático
    Outros vídeos desta música
    00:00 / 00:00
    Automático
    OK