Cifra Club

Y'all Want a Single

Korn

Tablatura: Principal (guitarra)
Tom: C
Afinação : Drop D - D,A,D,G,B,e

[Escute a música enquanto toca...é melhor!]
                                                             _
                                                              \
|----------------------------------------------------------|   |
|----------------------------------------------------------|   |
|----------------------------------------------------------|   |
|--8-7-----8-7-----8-7-----8-7-----8-7-----8-7-----8-7-----|   |
|--8-7-----8-7-----8-7-----8-7-----8-7-----8-7-----8-7-----|   |
|--8-7-----8-7-----8-7-----8-7-----8-7-----8-7-----8-7-----|   |
                                                               |
|----------------------------------------------------------|   |
|----------------------------------------------------------|   |
|----------------------------------------------------------|   |
|--8-7-88/10-10-88-7-8--------8-7-88/10-10-88-7-8----------|   |----->INTRODUÇÃO
|--8-7-88/10-10-88-7-8--------8-7-88/10-10-88-7-8----------|   |
|--8-7-88/10-10-88-7-8--------8-7-88/10-10-88-7-8----------|X4 |
                                                               |
|----------------------------------------------------------|   |
|----------------------------------------------------------|   |
|----------------------------------------------------------|   |
|--7-7-7-768--7-7-7-768--7-7-7-768--7-7-7-768--------------|   |
|--7-7-7-768--7-7-7-768--7-7-7-768--7-7-7-768--------------|   |
|--7-7-7-768--7-7-7-768--7-7-7-768--7-7-7-768--------------|   |
                                                              /
                                                             -
 PRÉ-VERSO
|-----------------------------------------------------|
|-----------------------------------------------------|
|------5--910--910-12---------------------------------|
|--7--85--910--910-12---------------------------------|
|--7--83--78---78--10---------------------------------|
|--7--8-----------------------------------------------|

 VERSO
|----------------------------------------------------------------------------|
|----------------------------------------------------------------------------|
|-------------------------------------------------------4/5-5-5-5-55---------|
|--7-7-7-768--7-7-7-768--7-7-7-768--7-7-7-768--0-0-0-00-4/5-5-5-5-55---------|
|--7-7-7-768--7-7-7-768--7-7-7-768--7-7-7-768--0-0-0-00-2/3-3-3-3-33---------|
|--7-7-7-768--7-7-7-768--7-7-7-768--7-7-7-768--0-0-0-00----------------------|

|----------------------------------------------------------------------------|
|----------------------------------------------------------------------------|
|---------------------------------4/5-5-5-5-55-------------------------------|
|--7-7-7-768--7-7-7-768--0-0-0-00-4/5-5-5-5-55-------------------------------|
|--7-7-7-768--7-7-7-768--0-0-0-00-2/3-3-3-3-33-------------------------------|
|--7-7-7-768--7-7-7-768--0-0-0-00--------------------------------------------|
 
 REFRÃO
|----------------------------------------------------------|
|----------------------------------------------------------|
|----------------------------------------------------------|
|--8-7-88/10-10-88-7-8--------8-7-88/10-10-88-7-8----------|
|--8-7-88/10-10-88-7-8--------8-7-88/10-10-88-7-8----------| 
|--8-7-88/10-10-88-7-8--------8-7-88/10-10-88-7-8----------|X4


 PRÉ-VERSO
|-----------------------------------------------------|
|-----------------------------------------------------|
|------5--910--910-12---------------------------------|
|--7--85--910--910-12---------------------------------|
|--7--83--78---78--10---------------------------------|
|--7--8-----------------------------------------------|

 VERSO
|----------------------------------------------------------------------------|
|----------------------------------------------------------------------------|
|-------------------------------------------------------4/5-5-5-5-55---------|
|--7-7-7-768--7-7-7-768--7-7-7-768--7-7-7-768--0-0-0-00-4/5-5-5-5-55---------|
|--7-7-7-768--7-7-7-768--7-7-7-768--7-7-7-768--0-0-0-00-2/3-3-3-3-33---------|
|--7-7-7-768--7-7-7-768--7-7-7-768--7-7-7-768--0-0-0-00----------------------|

|----------------------------------------------------------------------------|
|----------------------------------------------------------------------------|
|---------------------------------4/5-5-5-5-55-------------------------------|
|--7-7-7-768--7-7-7-768--0-0-0-00-4/5-5-5-5-55-------------------------------|
|--7-7-7-768--7-7-7-768--0-0-0-00-2/3-3-3-3-33-------------------------------|
|--7-7-7-768--7-7-7-768--0-0-0-00--------------------------------------------|

 REFRÃO
|----------------------------------------------------------|
|----------------------------------------------------------|
|----------------------------------------------------------|
|--8-7-88/10-10-88-7-8--------8-7-88/10-10-88-7-8----------|
|--8-7-88/10-10-88-7-8--------8-7-88/10-10-88-7-8----------| 
|--8-7-88/10-10-88-7-8--------8-7-88/10-10-88-7-8----------|X4

 POS-REFRÃO [GUITARRA I]
|-----------------------------------------------------|   |------------------------|
|-----------------------------------------------------|   |------------------------|
|------5--910--910-12---------------------------------|   |-----[GUITARRA II]------|
|--7--85--910--910-12---------------------------------|   |------[VAI SABER]-------|
|--7--83--78---78--10---------------------------------|   |------------------------|
|--7--8-----------------------------------------------|X4 |------------------------|

|-----------------------------------------------------|  
|-----------------------------------------------------|  
|-----------------------------------------------------|   
|--777777-8-7--777777-8-7--777777-8-7-----------------|   
|--777777-8-7--777777-8-7--777777-8-7-----------------|   
|--777777-8-7--777777-8-7--777777-8-7-----------------|

 GUITARRA I                      GUITARRA II
|---------------------------|   |------------| 
|---------------------------|   |--10-9-8-7--|  
|---------------------------|   |--9--8-7-6--|   
|--7~~--78-7~~--X-X-X-------|   |--7--6-5-4--|   
|--7~~--78-7~~--X-X-X-------|   |------------|   
|--7~~--78-7~~--X-X-X-------|X4 |------------|X2

              ...PARADA-|-BREAK...

|------------------|  
|------------------|  
|------------------|   
|--7-77-10-10-7-8--|   
|--7-77-10-10-7-8--|   
|--7-77-10-10-7-8--|X4

|---------------------------------------------------------------------|  
|---------------------------------------------------------------------|  
|---------------------------------------------------------------------|   
|--7-77-10-10-7-8-..-7-77-10-10-7-8-..-77-10-10-7-8-..-7-77-10-10-7-8-|   
|--7-77-10-10-7-8-..-7-77-10-10-7-8-..-77-10-10-7-8-..-7-77-10-10-7-8-|   
|--7-77-10-10-7-8-..-7-77-10-10-7-8-..-77-10-10-7-8-..-7-77-10-10-7-8-|

|------------------|  
|------------------|  
|------------------|   
|--7-77-10-10-7-8--|   
|--7-77-10-10-7-8--|   
|--7-77-10-10-7-8--|X4

|--------------------------------------|  
|--------------------------------------|  
|--------------------------------------|   
|--777777-8-7--777777-8-7--777777-8-7--|   
|--777777-8-7--777777-8-7--777777-8-7--|   
|--777777-8-7--777777-8-7--777777-8-7--|


-----------------------------------------------------------------------------------------------
LETRA: Ya'll Want A Single


Y'all want a single say fuck that
Fuck that, Fuck that
Y'all want a single say fuck that
Fuck that, Fuck that
Y'all want a single say fuck that
Fuck that, Fuck that
Boom Boom Boom Boom

What's going on today?
We gotta break away
We got a problem and
I think it's going to make us go down

They think we're all the same
And always we're to blame
For shit I think is lame
It's time to stop the game
I think it's time to pay for everything you made me say

Y'all want a single say fuck that
Fuck that, Fuck that (x4)

What's going on today?
Why must it be this way?
We're going nowhere and
We're still knocking the need to bow down

They think we're all the same
And always we're to blame
For shit I think is lame
It's time to stop the game
I think it's time to pay for everything you made me say

Y'all want a single say fuck that
Fuck that, Fuck that (x4)

We are the ones breaking you down
We are the hope to drown out your sounds
Across the world you've fed (?) what you found 
Across the world you're breaking you down

Y'all want a single say fuck that
Fuck that, Fuck that shit (x4)
Fuuuuuuuuuuuuuuck

Y'all want a single say fuck that
Fuck that, Fuck that (x6)
reproducciones 211
Acordes para:

    0 comentarios

    mostrar más comentarios

    ¿Conseguiste tocar?

    3 tocaron 0 aún no

    ¡Graba un vídeo tocando Y'all Want a Single y envianoslo!

    00:00 / 00:00
    outros vídeos desta música
    repetir qualidade Automático
    Outros vídeos desta música
    00:00 / 00:00
    Automático
    OK