Cifra Club

Aprenda

The Brightside

LiL PEEP

Tablatura: Principal (guitarra)
Tom: F# (con acordes en la forma de G) Afinação: Eb Ab Db Gb Bb Eb
[Intro]  Em  G  C  D

               Em                       G
I know that you want me, you know that I want you
             C                          D
The memories haunt me, I know that they haunt you too
         Em                 G                C                 D
But it's alright, you'll be fine, baby, it's alright you'll be fine

Eb|---------3---3-----------------------|
Ab|-----------5---5-3---3---3---3---3---|
Db|-2---2-------------------------------|
Gb|---4---4-----------2---2---2---2---2-|
Bb|-------------------------------------|
Eb|-------------------------------------|    
 
                  Em                       G
As long as you're mine, take a look at the time
        C                           D
It gets cold at night, when you're alone outside

Eb|---------3---3-----------------------|
Ab|-----------5---5-3---3---3---3---3---|
Db|-2---2-------------------------------|
Gb|---4---4-----------2---2---2---2---2-|
Bb|-------------------------------------|
Eb|-------------------------------------| 

         Em            G
But it's fine, I'll be fine
       C                     D
Pay me no mind, girl, pay me no mind
                 Em                           G
Just look at the brightside (just look at the brightside)
                 C                              D
Just look at the club lights (rolling under the club lights)

Eb|---------3---3-----------------------|
Ab|-----------5---5-3---3---3---3---3---|
Db|-2---2-------------------------------|
Gb|---4---4-----------2---2---2---2---2-|
Bb|-------------------------------------|
Eb|-------------------------------------| 

                    Em                      G
I gotta look at the brightside (look at the brightside)
                       C
I guess she wasn't the one, right
                D
This isn't what loves like
            Em
That's for sure

Eb|---------3---3-----------------------|
Ab|-----------5---5-3---3---3---3---3---|
Db|-2---2-------------------------------|
Gb|---4---4-----------2---2---2---2---2-|
Bb|-------------------------------------|
Eb|-------------------------------------| 

Em            G              C                D
Help me find a way to pass the time (to pass the time)

Eb|---------3---3-----------------------|
Ab|-----------5---5-3---3---3---3---3---|
Db|-2---2-------------------------------|
Gb|---4---4-----------2---2---2---2---2-|
Bb|-------------------------------------|
Eb|-------------------------------------| 

Em                  G                        C           D
Everybody telling me life's short, but I wanna die (I wanna die)

Eb|---------3---3-----------------------|
Ab|-----------5---5-3---3---3---3---3---|
Db|-2---2-------------------------------|
Gb|---4---4-----------2---2---2---2---2-|
Bb|-------------------------------------|
Eb|-------------------------------------| 

Em            G              C             D
Help me find a way to make you mine (make you mine)

Eb|---------3---3-----------------------|
Ab|-----------5---5-3---3---3---3---3---|
Db|-2---2-------------------------------|
Gb|---4---4-----------2---2---2---2---2-|
Bb|-------------------------------------|
Eb|-------------------------------------| 

Em                  G                    C
Everybody telling me not to, but I'm gonna try
                D
Now I'm getting high again, tonight

( Em  G  C  D )

                Em                       G
I know that you want me, you know that I want you
             C                          D
The memories haunt me, I know that they haunt you too
         Em                 G                C                 D
But it's alright, you'll be fine, baby, it's alright you'll be fine

Eb|---------3---3-----------------------|
Ab|-----------5---5-3---3---3---3---3---|
Db|-2---2-------------------------------|
Gb|---4---4-----------2---2---2---2---2-|
Bb|-------------------------------------|
Eb|-------------------------------------| 

                  Em                       G
As long as you're mine, take a look at the time
        C                           D
It gets cold at night, when you're alone outside

Eb|---------3---3-----------------------|
Ab|-----------5---5-3---3---3---3---3---|
Db|-2---2-------------------------------|
Gb|---4---4-----------2---2---2---2---2-|
Bb|-------------------------------------|
Eb|-------------------------------------| 

         Em            G
But it's fine, I'll be fine
       C                     D
Pay me no mind, girl, pay me no mind 

                 Em                           G
Just look at the brightside (just look at the brightside)
                 C                              D
Just look at the club lights (rolling under the club lights)

Eb|---------3---3-----------------------|
Ab|-----------5---5-3---3---3---3---3---|
Db|-2---2-------------------------------|
Gb|---4---4-----------2---2---2---2---2-|
Bb|-------------------------------------|
Eb|-------------------------------------| 

                    Em                      G
I gotta look at the brightside (look at the brightside)
                       C
I guess she wasn't the one, right
                D
This isn't what loves like
            Em
That's for sure

Eb|---------3---3-----------------------|
Ab|-----------5---5-3---3---3---3---3---|
Db|-2---2-------------------------------|
Gb|---4---4-----------2---2---2---2---2-|
Bb|-------------------------------------|
Eb|-------------------------------------| 

Em             G               C                 D
Help me find a way to pass the time (to pass the time)

Eb|---------3---3-----------------------|
Ab|-----------5---5-3---3---3---3---3---|
Db|-2---2-------------------------------|
Gb|---4---4-----------2---2---2---2---2-|
Bb|-------------------------------------|
Eb|-------------------------------------| 

Em                   G                         C            D
Everybody telling me life's short, but I wanna die (I wanna die)

Eb|---------3---3-----------------------|
Ab|-----------5---5-3---3---3---3---3---|
Db|-2---2-------------------------------|
Gb|---4---4-----------2---2---2---2---2-|
Bb|-------------------------------------|
Eb|-------------------------------------| 

Em             G               C              D
Help me find a way to make you mine (make you mine)

Eb|---------3---3-----------------------|
Ab|-----------5---5-3---3---3---3---3---|
Db|-2---2-------------------------------|
Gb|---4---4-----------2---2---2---2---2-|
Bb|-------------------------------------|
Eb|-------------------------------------| 

Em                   G                     C
Everybody telling me not to, but I'm gonna try
                D
Now I'm getting high again, tonight

Eb|---------3---3-----------------------|
Ab|-----------5---5-3---3---3---3---3---|
Db|-2---2-------------------------------|
Gb|---4---4-----------2---2---2---2---2-|
Bb|-------------------------------------|
Eb|-------------------------------------| 

( Em  G  C  D )

Eb|---------3---3-----------------------|
Ab|-----------5---5-3---3---3---3---3---|
Db|-2---2-------------------------------|
Gb|---4---4-----------2---2---2---2---2-|
Bb|-------------------------------------|
Eb|-------------------------------------| 

                 Em                           G
Just look at the brightside (just look at the brightside)
                 C                              D
Just look at the club lights (rolling under the club lights)

Eb|---------3---3-----------------------|
Ab|-----------5---5-3---3---3---3---3---|
Db|-2---2-------------------------------|
Gb|---4---4-----------2---2---2---2---2-|
Bb|-------------------------------------|
Eb|-------------------------------------| 

                 Em                          G
Just look at the nightlife (just look at the nightlife)
                C          D
Watching the sunrise by my side

Eb|---------3---3-----------------------|
Ab|-----------5---5-3---3---3---3---3---|
Db|-2---2-------------------------------|
Gb|---4---4-----------2---2---2---2---2-|
Bb|-------------------------------------|
Eb|-------------------------------------| 

                     Em                           G
We gotta look at the brightside (just look at the brightside)
                  C                              D
Rolling under the club lights (rolling under the club lights)
                    Em                           G
I gotta look at the brightside (just look at the brightside)
                       C
I guess she wasn't the one, right
                D
This isn't what loves like
            Em
That's for sure
Compositor LIL PEEP
Colaboración y revision:
  • Pedro Oliveira
287 reproducciones
    • ½ Tom
    • A
    • Bb
    • B
    • C
    • Db
    • D
    • Eb
    • E
    • F
    • F#
    • G
    • Ab
  • Adicionar à lista

    0 comentarios

    Mostrar mais comentários

    ¿Conseguiste tocar?

    3 Tocaron 1 Ainda não

    Grave um vídeo tocando The Brightside e mande pra gente!

    00:00 / 00:00
    outros vídeos desta música
    repetir qualidade Automático
    Outros vídeos desta música
    00:00 / 00:00
    Automático
    OK