Cifra Club

O Vencedor

Los Hermanos

Cifrado: Principal (guitarra y guitarra eléctrica)
tono: B (con acordes en la forma de C) Afinación: Eb Ab Db Gb Bb Eb
[Intro] G5  F7M/C  G5  F7M/C
        G5  F7M/C  G5  F7M/C

[Solo Intro]

Parte 1 de 4
E|---------------------------------------------------|
B|-12--12----10----10----13----13----12-10-8---------|
G|---------------------------------------------------|
D|-12--12----10-10-10----14-14-14----12-10-9---------|
A|---------------------------------------------------|
E|---------------------------------------------------|

Parte 2 de 4
E|---------------------------------------------------|
B|-6/8\--6--6--5-5--3-3------------------------------|
G|-----------------------5--4------------------------|
D|-7/9\--7--7--5-5--4-4------------------------------|
A|-----------------------7--5------------------------|
E|---------------------------------------------------|

Parte 3 de 4
E|---------------------------------------------------|
B|---------12----12---13-13-13---------17-17\--------|
G|-------------------------------x-x-----------------|
D|-10/12---12-12-12---14-14-14---x-x---17-17\--------|
A|---------------------------------------------------|
E|---------------------------------------------------|

Parte 4 de 4
E|---------------------------------------------------|
B|-15-13-12--10/12\--10-10--8-8--5--6-6--6/7---------|
G|---------------------------------------------------|
D|-15-14-12--10/12\--10-10--9-9--5--7-7--7/8---------|
A|---------------------------------------------------|
E|---------------------------------------------------|

[Primeira Parte]

Parte 1 de 4
E|---------------------------------------------------|
B|-8--10-11-12--10/12\--10----10---------------------|
G|---------------------------------------------------|
D|-9--10-11-12--10/12\--10-10-10-10------------------|
A|---------------------------------------------------|
E|---------------------------------------------------|

Parte 2 de 4
E|---------------------------------------------------|
B|-13----13---12-10-8---6/8\--6--6--5-5--3-3---------|
G|--------------------------------------------5--4---|
D|-14-14-14---12-10-9---7/9\--7--7--5-5--4-4---------|
A|--------------------------------------------7--5---|
E|---------------------------------------------------|

Parte 3 de 4
E|---------------------------------------------------|
B|---------12----12---13-13-13---------17-17\--------|
G|-------------------------------x-x-----------------|
D|-10/12---12-12-12---14-14-14---x-x---17-17\--------|
A|---------------------------------------------------|
E|---------------------------------------------------|

Parte 4 de 4
E|---------------------------------------------------|
B|-15-13-12--10/12\--10-10--8-8--5--6-6--6/7---------|
G|---------------------------------------------------|
D|-15-14-12--10/12\--10-10--9-9--5--7-7--7/8---------|
A|---------------------------------------------------|
E|---------------------------------------------------|

[Solo dos Metais]

E|---------------------------------------------------|
B|-----13--11-------13--15-------13--11---17--13--15-|
G|-12-----------12-----------12----------------------|
D|-----10---8-------10--12-------10---8---14--10--12-|
A|-10-----------10-----------10----------------------|
E|---------------------------------------------------|

G5                F7M/C        G5
   Olha lá, quem vem do lado oposto
         F7M/C         G5
Vem sem gosto de viver
                 F7M/C        G5
Olha lá que os bravos são escravos
        F7M/C           G5
Sãos e salvos de sofrer
             F7M/C        G5
Olha lá quem acha que perder
         F7M/C       G5
É ser menor na vida
              F7M/C         G5
Olha lá quem sempre quer vitória
            F7M/C       
E perde a glória de chorar

Dm7                 Em7    
    Eu que já não quero mais   
Dm7              Em7  Ebm7  Dm7
    Ser um vencedor
             Em7      F         G    C
Levo a vida devagar pra não faltar amor
Bb5(9)          C  Bb5(9)            C
       Olha você          e diz que não
Bb5(9)              C   Bb5(9)        Am7  D5(9)
       Vive a esconder         o coração

[Segunda Parte]

Parte 1 de 3
E|---------------------------------------------------|
B|-------13\--12\--7---5/7--5-5---1--3-5-3-----------|
G|---------------------------------------------------|
D|-12/14---\--12\--7---5/7--5-5---2--4-5-4-----------|
A|---------------------------------------------------|
E|---------------------------------------------------|

Parte 2 de 3
E|---------------------------------------------------|
B|-------13\--12\--7---8h10--10----------------------|
G|---------------------------------------------------|
D|-12/14---\--12\--7---9/10--10----------------------|
A|---------------------------------------------------|
E|---------------------------------------------------|

Parte 3 de 3
E|---------------------------------------------------|
B|-------13\--12\--7---------------------------------|
G|---------------------------------------------------|
D|-12/14---\--12\--7---------------------------------|
A|---------------------------------------------------|
E|---------------------------------------------------|

( Am7  D5(9) )
( Am7  D5(9) )
( Am7  D5(9) )

Am7         D5(9)   Am7  
    Não faz isso, amigo
       D5(9)        Am7
Já se sabe que você
       D5(9)    Am7
Só procura abrigo
         D5(9) B7      E
Mas não deixa ninguém ver
           A  
Por que será?

( G5  A  G5  A )
( G5  A  G5 )

[Terceira Parte]

[Solo 1]

E|---------------------------------------------------|
B|---10-8-7------------------------------------------|
G|-9--------9-7-9-6---6------------------------------|
D|------------------7---9----9-7---------------------|
A|------------------------10-------------------------|
E|---------------------------------------------------|

[Solo 2]

E|------7-10p9-10--9---9----7------------------------|
B|---10------------------10---10-8-10-7-10-10/12~----|
G|-9-------------------------------------------------|
D|---------------------------------------------------|
A|---------------------------------------------------|
E|---------------------------------------------------|

Em7                F#m7
    Eu que já não fui assim
Em7              F#m7   Fm7  Em7
    Muito de ganhar
                  F#m7
Junto as mãos ao meu redor
 G5        A    G5       A
Faço o melhor que sou capaz
 G5       A      D5(9)  C
Só pra viver em paz

( D5(9)  C  D5(9)  C )
( D5(9)  C  D5(9)  C )

[Solo Final]

E|---------------------------------------------------|
B|-10-8-7---7-8---7-8-----7-------7-------7----------|
G|--------9-----9-----9-----7---7---7---7---7--------|
D|----------------------------7-------7--------------|
A|---------------------------------------------------|
E|---------------------------------------------------|

E|---------------------------------------------------|
B|-5-------5-------5---------------------------------|
G|---5---5---5---5---7-------------------------------|
D|-----5-------5-------------------------------------|
A|---------------------------------------------------|
E|---------------------------------------------------|
00:00 / 00:00
Otros videos de esta canción
Repetir
Otros videos de esta canción
Composición de Marcelo Camelo
Colaboración y revisión:
3.124 vistas
  • Simplificar cifrado
    • ½ Tono
    • A
    • Bb
    • B
    • C
    • Db
    • D
    • Eb
    • E
    • F
    • F#
    • G
    • Ab
  • Agregar a la lista

    0 comentarios

    Ver todos los comentarios

    ¿Lograste tocar?

    60 Tocaron 4 Aún no

    ¡Graba un video tocando O Vencedor y envíanoslo!

    00:00 / 00:00
    Capítulos
    • Início
    • Afinação
    • Tocando a música
    • Acordes da Introdução e Primeira Parte
    • Tocando Introdução e Primeira Parte
    • Ensinando ritmo da música (Violão 1)
    • Ensinando Introdução (Violão 2)
    • Ensinando Primeira Parte (Violão 2)
    • Ensinando Riff de Metais
    • Acordes do Refrão e Segunda Parte
    • Tocando Refrão e Segunda Parte
    • Ensinando ritmo do Refrão e Segunda Parte
    • Ensinando Segunda Parte (Violão 2)
    • Acordes da Terceira Parte
    • Tocando Terceira Parte
    • Ensinando os Solos da Terceira Parte
    • Ensinando o Solo Final
    • Encerramento
    OK