Cifra Club

Vermelho

Marcelo Camelo

Cifrado: Ao-vivo (guitarra y guitarra eléctrica)
tono: D
Intro:

     D      G    Gm6    D       D      A7
E|-5-5-5--7-7--3-3-3--5-5--|--5-5-5--0-0------------------|
B|-7-7-7--8-8--3-3-3--7-7--|--7-7-7--2-2------------------|
G|-7-7-7--7-7--3-3-3--7-7--|--7-7-7--0-0------0-----------|
D|-7-7-7--9-9--5-5-5--7-7--|--7-7-7--2-2--0h2-------0-----|
A|-------------------------|--------------------0h2-------|
E|-------------------------|------------------------------|

G7M  D/F#        G7M              D/F#
  Ah as vezes     eu só quero descansar
G7M         Bm7
  Desacreditar no espelho
Em7             D/F#
  Ver o sol se pôr vermelho
G7M D/F#
 Ah acho graça
G7M                D/F#
  Que isso sempre foi assim
G7M            Bm7
  Mas você me chama pro mundo
Em7                                  A7 (passagem)
  E me faz sair do fundo de onde eu tô de novo

Passagem: 
B|4-5 
G|3-6
D|4-5
A|--0

Introdução: (Fazer os acordes abaixo como mostra na tablatura)

D      G   Gm6      D
 Nada sei    dessa tarde
           A7
Se você não vem
D       G   Gm6     D
 Sigo o sol   na cidade
            A7
Pra te procurar


G7M   D/F#        G7M              D/F#
   Ah eu bem sei  onde tudo vai parar
G7M            Bm7
 Já não tenho medo do mundo
Em7           D/F#
 Sou filho da eternidade
G7M            D/F#
 Trago nesses pés o vento
G7M           D/F#
 Pra te carregar daqui
G7M           Bm7
 Mas você sorri desse jeito
Em7                             A7 (passagem)
 E eu que já perdi a hora e o lugar           aceito.

Passagem: 

E|-----|
B|-4-5-|
G|-3-6-|
D|-4-5-|
A|---0-|
E|-----|
       
     D      G    Gm6    D       D      A7
E|-5-5-5--7-7--3-3-3--5-5--|--5-5-5--0-0------------------|
B|-7-7-7--8-8--3-3-3--7-7--|--7-7-7--2-2------------------|
G|-7-7-7--7-7--3-3-3--7-7--|--7-7-7--0-0------0-----------|
D|-7-7-7--9-9--5-5-5--7-7--|--7-7-7--2-2--0h2-------0-----| (2x)
A|-------------------------|--------------------0h2-------|
E|-------------------------|------------------------------|

Introdução: (Fazer os acordes abaixo como mostra na tablatura)

D      G   Gm6      D
 Nada sei    dessa tarde
             A7
Se você não vem
D       G   Gm6      D
 Sigo o sol   na cidade
            A7
Pra te procurar
00:00 / 00:00
Otros videos de esta canción
Repetir
Otros videos de esta canción
Composición de Marcelo Camelo
Colaboración y revisión:
  • Jorge André
  • Afonso Souza
13 vistas
    • ½ Tono
    • A
    • Bb
    • B
    • C
    • Db
    • D
    • Eb
    • E
    • F
    • F#
    • G
    • Ab
  • Agregar a la lista

    0 comentarios

    Ver todos los comentarios

    ¿Lograste tocar?

    1 Tocaron 0 Aún no

    ¡Graba un video tocando Vermelho y envíanoslo!

    00:00 / 00:00
    OK