Cifra Club

Promises

Megadeth

Cifrado: Principal (guitarra y guitarra eléctrica)
Selo Cifra Club: esta cifra foi revisada para atender aos critérios oficiais da nossa Equipe de Qualidade.
tono: D
Drop D Tuning

  set rhythm accordingly
E|--5---|-6---|--6---|--5---|
B|--6---|-5---|--5---|--7---|
G|----7-|---7-|----6-|----5-|
D|------|-----|------|------|
A|------|-----|------|------|
D|------|-----|------|------|

E|------3-6-5-3-3-----3-6-5-3-3---
B|----3-------------3-------------
G|--3-------------3---------------
D|--------------------------------
A|--------------------------------
D|--------------------------------

  Pre|-Chorus
E|--------------------------------
B|--------------------------------
G|--8---10--8---10--8---10--11----
D|--8---10--8---10--8---10--11----
A|--6---9---6---9---6---9---10----
D|--------------------------------

  Chorus
E|---------------------------
B|---------------------------
G|--------------8-8-8-8-8-7--
D|--------------8-8-8-8-8-7--
A|--5---1---3---6-6-6-6-6-5--
D|--5---1---3----------------
Otros videos de esta canción
    8.096 exhibiciones
      • ½ Tono
      • A
      • Bb
      • B
      • C
      • Db
      • D
      • Eb
      • E
      • F
      • F#
      • G
      • Ab
    • Agregar a la lista

    Afinação da cifra

    Afinador online

      Ops (: Contenido disponible solo en portugués.
      OK