Cifra Club

Rust In Peace Polaris

Megadeth

Cifrado: Principal (guitarra y guitarra eléctrica)
Selo Cifra Club: esta cifra foi revisada para atender aos critérios oficiais da nossa Equipe de Qualidade.
tono: D
[Riff 1]
E|------------------------|
B|------------------------|
G|------------------------|
D|-----4------------4-----|
A|-------2-3-2--------3-2-|
E|-2-2----------2-2-------|
   * *          * *
E|--------------------|
B|--------------------|
G|--------------------|
D|-5------4--5------4-|
A|-3--4-0-2--3--4-0-2-|
E|----2---------2-----|
      *         *
E|------------------------|
B|------------------------|
G|------------------------|
D|-----4------------4-----|
A|-------2-3-2--------3-2-|
E|-2-2----------2-2-------|
   * *          * *

[1, 3 ending]
E|------------|
B|------------|
G|------------|
D|-5--5--5--5-|
A|-3--3--3--3-|
E|------------|

[2nd ending]
E|-------------|
B|-------------|
G|-------------|
D|-5--5----5-5-|
A|-3--3----3-3-|
E|-------------|

[4th ending]
E|-------------|
B|-------------|
G|-------------|
D|-5-5-5-5-5-5-|
A|-3-3-3-3-3-3-|
E|-------------|

[Riff 2]
(Guitar 1)
E|-----------------------------|
B|-----------------------------|
G|-----------------------------|
D|-4---------------------------|
A|-2------------3------------3-|
E|-2------------1------------1-|

[Guitar 2]
E|-------------------------------|
B|-17b19r17b19r17----15h17-------|
G|-------------------------16~~~-|
D|-------------------------------|
A|-------------------------------|
E|-------------------------------|

E|--------------------17-[20]22r20-17-------------|
B|-17-20p17-20b22~~-------------------18----------|
G|-----------a---------------------------17\14~~\-|
D|------------------------------------------------|
A|------------------------------------------------|
E|------------------------------------------------|

[Riff 3]
E|------------------------------|
B|------------------------------|
G|------------------------------|
D|---2--4--5--------------------|
A|-4-0--2--3----2h3p2-----------|
E|-2------------------5-2-0-5-2-|
   *                  * * *
          "Tremble weaklings..."
E|-----------------------------------|
B|-----------------------------------|
G|-----------------------------------|
D|---2--4--5-------------------------|
A|-4-0--2--3----2h3p2-------4--x-x-x-|
E|-2------------------5-2-0-2--x-x-x-|
   *                  * * *
          "I am your ruler..."
E|----------------------------|
B|----------------------------|
G|----------------------------|
D|-2--4--5--------------------|
A|-0--2--3----2h3p2-----------|
E|------------------5-2-0-5-2-|
                    * * *
        "Immense in my girth..."
E|---------------------------------------|
B|---------------------------------------|
G|---------------------------------------|
D|---2--4--5-----------------------------|
A|-4-0--2--3--2h3p2-------------4--x-x-x-|
E|-2----------------5-2-0-5-2-0-2--x-x-x-|
   *                * * * * * *
          "I'm a nuclear murderer..."

[Riff 3]
E|----------------------------|
B|----------------------------|
G|----------------------------|
D|-2--4--5--------------------|
A|-0--2--3----2h3p2-----------|
E|------------------5-2-0-5-2-|
                    * * *
        "Ready to pounce..."
E|-----------------------------------|
B|-----------------------------------|
G|-----------------------------------|
D|---2--4--5-------------------------|
A|-4-0--2--3----2h3p2-------4--x-x-x-|
E|-2------------------5-2-0-2--x-x-x-|
   *                  * * *
          "My system's locked in..."
E|----------------------------|
B|----------------------------|
G|----------------------------|
D|-2--4--5--------------------|
A|-0--2--3----2h3p2-----------|
E|------------------5-2-0-5-2-|
                    * * *
        "I rule land, air and sea..."
E|---------------------------------------|
B|---------------------------------------|
G|---------------------------------------|
D|---2--4--5-----------------------------|
A|-4-0--2--3--2h3p2-------------4--x-x-x-|
E|-2----------------5-2-0-5-2-0-2--x-x-x-|
   *                * * * * * *
           "Pass judgement on humanity..."

[Riff 4]
(Guitar 1)
E|------------------------|
B|------------------------|
G|------------------------|
D|-2--4--5----------------|
A|-0--2--3---/7~----6-----|
E|--------------------7\--|
             "Winds blow..."
E|-------------------------|
B|-------------------------|
G|-------------------------|
D|---2--4--5---/5~----4----|
A|-4-0--2--3------------6\-|
E|-2-----------------------|
   *         "Will we give..."
E|-------------------------|
B|-------------------------|
G|-------------------------|
D|---2--4--5---/9~----8----|
A|-4-0--2--3------------9\-|
E|-2-----------------------|
   *         "Satan rears..."
E|---------------------------------|
B|---------------------------------|
G|-------------/9~----8------------|
D|---2--4--5------------9\----2----|
A|-4-0--2--3------------------0--2-|
E|-2------------------------0----0-|
   *                        *
             "To spit in the wind..."

[Guitar 2]
E|------------------------|
B|------------------------|
G|------------------------|
D|-2--4--5---/5~----4-----|
A|-0--2--3------------6\--|
E|------------------------|

E|-------------------------|
B|-------------------------|
G|-------------------------|
D|---2--4--5---/9~----8----|
A|-4-0--2--3------------9\-|
E|-2-----------------------|
   *
E|-------------------------|
B|-------------------------|
G|-------------/9~----8----|
D|---2--4--5------------9\-|
A|-4-0--2--3---------------|
E|-2-----------------------|
   *
E|---------------------------------|
B|-------------/8~----7------------|
G|----------------------8\---------|
D|---2--4--5------------------2----|
A|-4-0--2--3------------------0--2-|
E|-2------------------------0----0-|
   *                        *

[Riff 5]
E|----------------------------------|
B|----------------------------------|
G|----------------------------------|
D|----------------------------------| ----|
A|-4--x-x-x-4--x-x-x-4--x-x-x-4-2-4-| |
E|-2--x-x-x-2--x-x-x-2--x-x-x-2-0-2-| |
    "I spread disease..."                  |--> Play 3x
E|-------------------------------------| |
B|-------------------------------------| |
G|-------------------------------------| --|
D|-------------------------------------|
A|-5--x-x-x-5--x-x-x-5--x-x-x-7-7--x-x-|
E|-3--x-x-x-3--x-x-x-3--x-x-x-5-5--x-x-|
    "Discharge my..."

E|----------------------------------|
B|----------------------------------|
G|----------------------------------|
D|----------------------------------|
A|-4--x-x-x-4--x-x-x-4--x-x-x-4-2-4-|
E|-2--x-x-x-2--x-x-x-2--x-x-x-2-0-2-|
    "...a mile high..."
E|----------------------------------|
B|----------------------------------|
G|----------------------------------|
D|-------------------7--------6--9\-|
A|-5--x-x-x-5--x-x-x-5--x-x-x-4--7\-|
E|-3--x-x-x-3--x-x-x----x-x-x-------|
    "Assaults your nostrils..."

[Riff 6]
E|-----------------------------------------------|
B|-----------------------------------------------|
G|-----------------------------------------------|
D|-4p2---2------------4p2---2------------5-----3-| --> Play 4x
A|-----4---4p0-3p2p0------4---4p0-3p2p0--3--5--1-|
E|------------------------------------------3----|
                                         "Launch the..."
E|------------|
B|------------|
G|------------|
D|-4----------|
A|-2--4--2--4-|
E|----2--0--2-|
   "...all rust in peace."

Play Riff 3   "Bomb shelters..."
Play Riff 4   "I rule land, air and sea..."
Play Riff 5   "I spread disease..."
Play Riff 6   "Launch the Polaris..."
Play Riff 3   "High priest of holocaust..."
Play Riff 4   "I rule land, air and sea..."
Play Riff 5   "I spread disease..."
Play Riff 6   "Launch the Polaris..."

(End Rust In Peace)

[Verse]
(Riff 1)
E|--------------------------|
B|--------------------------|
G|--------------------------|
D|--------------------------|
A|-4-4----4-5-4----4----4-5-|
E|-2-2--0-2-3-2--0-2--0-2-3-|
        * * *    * *  * * *
E|------------------------|
B|------------------------|
G|------------------------|
D|----------------------5-|
A|-4-4----4-5-4----4----3-|
E|-2-2--0-2-3-2--0-2--0-3-|
        * * *    * *  *
E|--------------------------|
B|--------------------------|
G|--------------------------|
D|--------------------------|
A|-4-4----4-5-4----4----4-5-|
E|-2-2--0-2-3-2--0-2--0-2-3-|
        * * *    * *  * * *
E|-------------------|
B|-------------------|
G|-------------------|
D|-----------------5-|
A|-4-4----4-5-4----3-|
E|-2-2--0-2-3-2------|
        * * *

[Riff 2]
(Solo Rhythm)
E|----------------------------|
B|----------------------------|
G|----------------------------|
D|----------------------------|
A|-------5----4--------5----4-|
E|-2-2-2-3--0-2--2-2-2-3--0-2-|
   * * *    *    * * *    *

[Solo]
E|----------------------------|
B|-17b19~~----17p14-17b19~~~--|
G|----------------------------|
D|----------------------------|
A|----------------------------|
E|----------------------------|

E|--------------------------------------|
B|-17p14--14h17p14--------17p14---------|
G|------17--------17p14h17-----17p14\13-|
D|--------------------------------------|
A|--------------------------------------|
E|--------------------------------------|

E|---------------------------------14-|
B|-16p13------------------------14----|
G|------16p13h17-14h17p14-16h17-------|
D|------------------------------------|
A|------------------------------------|
E|------------------------------------|

E|---------17p14-----------17p14---------|
B|-17p14h17-----14h17p14h17-----17p14h17-|
G|---------------------------------------|
D|---------------------------------------|
A|---------------------------------------|
E|---------------------------------------|

E|-17p14-----19p14--14-17b19-|
B|------17p14-----17---------|
G|---------------------------|
D|---------------------------|
A|---------------------------|
E|---------------------------|

E|-17-16-14-----19b21r19b21b21~~~-|
B|------------17------------------|
G|---------17---------------------|
D|--------------------------------|
A|--------------------------------|
E|--------------------------------|

[End Solo]

[Riff 3] 
(Play 2x)                 x3
E|--------------------------------|
B|--------------------------------|
G|--------------------------------|
D|--------------------------------|
A|-2h3p2p0-2p0--------------------|
E|-------------3-0--2-2-2-5-2-0-2-|
               * *  * * * * * * *
E|-----------------|
B|-----------------|
G|-----------------|
D|-----------------|
A|-2h3p2p0-2p0-----|
E|-------------3-0-|
               * *           x2
E|----------------------------|
B|----------------------------|
G|----------------------------|
D|----------------------------|
A|-------5----4--------5----4-|
E|-2-2-2-3--0-2--2-2-2-3--0-2-|
   * * *    *    * * *    *

[Riff 4]
E|--------------------------------|
B|--------------------------------|
G|--------------------------------|
D|--------------------------------|
A|-2h3p2p0-2p0--------------------|
E|-------------3-0--2-2-2-5-2-0-2-|
               * *  * * * * * * *
E|-------------------------------|
B|-------------------------------|
G|-------------------------------|
D|-------------------------------|
A|-2h3p2p0-2p0---0-2-2-2-3-2p0-2-|
E|-------------3-----------------|
               * *
E|---------------------------------|
B|---------------------------------|
G|---------------------------------|
D|---------------------------------|
A|-2h3p2p0-2p0---0-5-4-3-2---------|
E|-------------3-----------5-4-3-2-|
                   * * * * * * * *
E|-----------------|
B|-----------------|
G|-----------------|
D|-----------------|
A|-2h3p2p0-2p0-----|
E|-------------3-0-|
               * *           x2
E|----------------------------|
B|----------------------------|
G|----------------------------|
D|----------------------------|
A|-------5----4--------5----4-|
E|-2-2-2-3--0-2--2-2-2-3--0-2-|
   * * *    *    * * *    *

(Final time)
E|--------------------------------|
B|--------------------------------|
G|--------------------------------|
D|--------------------------------|
A|-2h3p2p0-2p0--------------------|
E|-------------3-0--2-2-2-5-2-0-2-|
               * *  * * * * * * *
E|-------------------------------|
B|-------------------------------|
G|-------------------------------|
D|-------------------------------|
A|-2h3p2p0-2p0---0-2-2-2-3-2p0-2-|
E|-------------3-----------------|
               * *
E|---------------------------------|
B|---------------------------------|
G|---------------------------------|
D|---------------------------------|
A|-2h3p2p0-2p0---0-5-4-3-2---------|
E|-------------3-----------5-4-3-2-|
                   * * * * * * * *
E|-----------------|
B|-----------------|
G|-----------------|
D|-----------------|
A|-2h3p2p0-2p0-----|
E|-------------3-0-|
               * *           x3
E|----------------------------|
B|----------------------------|
G|----------------------------|
D|----------------------------|
A|-------5----4--------5----4-|
E|-2-2-2-3--0-2--2-2-2-3--0-2-|
   * * *    *    * * *    *
E|------------------------------|
B|------------------------------|
G|------------------------------|
D|------------------------------|
A|-------5----4--------5----4---|
E|-2-2-2-3--0-2--2-2-2-3--0-2-0-|
   * * *    *    * * *    *   *

[Riff 1]
E|--------------------------|
B|--------------------------|
G|--------------------------|
D|--------------------------|
A|-4-4----4-5-4----4----4-5-|
E|-2-2--0-2-3-2--0-2--0-2-3-|
        * * *    * *  * * *
     "Eradication of..."
E|------------------------|
B|------------------------|
G|------------------------|
D|----------------------5-|
A|-4-4----4-5-4----4----3-|
E|-2-2--0-2-3-2--0-2--0-3-|
        * * *    * *  *
     "...Earth's population..."
E|--------------------------|
B|--------------------------|
G|--------------------------|
D|--------------------------|
A|-4-4----4-5-4----4----4-5-|
E|-2-2--0-2-3-2--0-2--0-2-3-|
        * * *    * *  * * *
     "Polaris..."
E|-------------------|
B|-------------------|
G|-------------------|
D|-----------------5-|
A|-4-4----4-5-4----3-|
E|-2-2--0-2-3-2------|
        * * *
E|--------------------------|
B|--------------------------|
G|--------------------------|
D|--------------------------|
A|-4-4----4-5-4----4----4-5-|
E|-2-2--0-2-3-2--0-2--0-2-3-|
        * * *    * *  * * *
     "Eradication of..."
E|------------------------|
B|------------------------|
G|------------------------|
D|----------------------5-|
A|-4-4----4-5-4----4----3-|
E|-2-2--0-2-3-2--0-2--0-3-|
        * * *    * *  *
     "...Earth's population..."
E|--------------------------|
B|--------------------------|
G|--------------------------|
D|--------------------------|
A|-4-4----4-5-4----4----4-5-|
E|-2-2--0-2-3-2--0-2--0-2-3-|
        * * *    * *  * * *
     "Polaris..."
E|---------------|
B|---------------|
G|---------------|
D|---------------|
A|-4-4--3-2-0--4-|
E|-2-2---------2-|


************************************

| h    Hammer-on
| r    Release
| b    Bend
| ~    Vibrato
| [n]  Artificial harmonic
| p    Pull-off
| \    Slide down
| x    Dead note
| /    Slide up
| *    Natural harmonic
00:00 / 00:00
Otros videos de esta canción
Repetir
Otros videos de esta canción
123 exhibiciones
    • ½ Tono
    • A
    • Bb
    • B
    • C
    • Db
    • D
    • Eb
    • E
    • F
    • F#
    • G
    • Ab
  • Agregar a la lista

Afinación de cifrado

Afinador online

    00:00 / 00:00
    OK