Cifra Club

Billie Jean

Michael Jackson

Tab de bajo: Versão 3
(riff principal)
G|-----------------------------------|
D|-----------------------------------|
A|---5-0-3-5-3-----------------------|
E|----------------5-3-0--------------|

(riff alternativo 2x)
G|--------------------------|
D|----5-0-3-5---------------|
A|------------------5-3-5---|  
E|--------------------------|

(pré-refrão 3x)
G|--------------------------------|
D|----------------3-x-5-----------|
A|—5---5-5—5----------------------|       
E|------------------------3-3-----|
00:00 / 00:00
Otros videos de esta canción
Repetir
Otros videos de esta canción
Composición de Michael Jackson
Colaboración y revisión:
  • Gustavo Lopes
  • Wellington Goulart
42 vistas

0 comentarios

Ver todos los comentarios

¿Lograste tocar?

0 Tocaron 0 Aún no

¡Graba un video tocando Billie Jean y envíanoslo!

00:00 / 00:00
Capítulos
  • Início
  • Tocando a música
  • Tocando Introdução
  • Ensinando Introdução
  • Tocando Primeira Parte
  • Ensinar Primeira Parte
  • Tocando Segunda Parte
  • Ensinando Segunda Parte
  • Tocando Quarta Parte
  • Ensinando Quarta Parte
  • Tocando Refrão
  • Ensinando Refrão
  • Tocando Secção do Riff
  • Ensinando Secção do Riff
  • Encerramento
OK