Cifra Club

Smooth Criminal

Michael Jackson

Tab de bajo: Versão 2
Acompaña nuestras novedades de Cifra Club en español.
¡Sigue nuestro perfil en Instagram!
0:14 Intro:
G|--------------------------------|
D|--------------------------------|
A|--0-00002-2---023-3---032-----0-|   (4x)
E|--------------------------3-----| 

Verso 1:
G|--------------------------------|
D|--------------------------------|
A|--0-00002-2---023-3---032-----0-|   (3x)
E|--------------------------3-----| 

G|--------------------------------|
D|--------------------------------|
A|--0000002-2---023-3---032-------|
E|--------------------------3---1-|

(0:47) Pré-Refrão:
G|--------------------------------|--------------------------------|
D|----------3---3-----------------|--3-----------------------------|
A|--------------------------------|--------------------------------|
E|--1-1---1---1---1---1---3-3-3-1-|----1---1-1-1---1---1---3-3-3-1-|

G|--------------------------------|--------------------------------|
D|--3-----------------------------|--3-----------------------------|
A|--------------------------------|------------------------------0-|
E|----1---1-1-1---1---1---3-3-3-1-|----1---1-1-1---0---0---0-2-4---|

(1:03) Refrão:
G|--------------------------------|--------------------------------|
D|--------------------------------|--------------------------------|
A|----0-00----------------------0-|----0-00----------------------0-|
E|--------3-3---331-1---113-3-3---|--------3-3---331-1---1-0-2-4---|  

G|--------------------------------|--------------------------------|
D|--------------------------------|--------------------------------|
A|----0-00----------------------0-|----0-00------------------------|
E|--------3-3---331-1---113-3-3---|--------3-3---331-1---1-0-2-4-1-| 

(1:19) Pós-Refrão:
G|--------------------------------|--------------------------------|
D|--------------------------------|----------3---------------------|
A|--------------------------------|--------------------------------|
E|--1-1---1-1-1---1---1---3-3-3-1-|--1-1---1---1---1---1---3-3-3-1-|

G|--------------------------------|--------------------------------|
D|----------3---------------------|--------------------------------|
A|--------------------------------|------------------------------0-|
E|--1-1---1---1---1---1---3-3-3-1-|0-------0-0---------0-----------|

(1:36) Verso 2:
G|--------------------------------|
D|--------------------------------|
A|--0-00002-2---023-3---032-----0-|   (3x)
E|--------------------------3-----|

G|--------------------------------|
D|--------------------------------|
A|--0000002-2---023-3---032-------|
E|--------------------------3---1-|

(1:52) Pré-Refrão:
G|--------------------------------|--------------------------------|
D|----------3---3-----------------|--------------------------------|
A|--------------------------------|--------------------------------|
E|--1-1---1---1---1---1---3-3-3-1-|--1-1---1-1-1---1---1---3-3-3-1-|

G|--------------------------------|--------------------------------|
D|--------------------------------|--------------------------------|
A|--------------------------------|------------------------------0-|
E|--1-1---1-1-1---1---1---3-3-3-1-|--1-1---1-1-1---0---0---0-2-4---|

(2:08) Refrão:
G|--2-----------------------------|--2-----------------------------|
D|--------------------------------|--------------------------------|
A|----0000----------------------0-|----0000----------------------0-|
E|--------3-3---331-1---113-3-3---|--------3-3---331-1---1-0-2-4---|  

G|--2-----------------------------|--2-----------------------------|
D|--------------------------------|--------------------------------|
A|----0000----------------------0-|----0000------------------------|
E|--------3-3---331-1---113-3-3---|--------3-3---331-1---1-0-2-4-1-|

G|--------------------------------|--------------------------------|
D|----------3---------------------|--------------------------------|
A|--------------------------------|------------------------------0-|
E|--1-1---1---1---1---1---3-3-3-1-|0-------0-0---------0-----------|

(2:32) Ponte:
G|--------------------------------|
D|--------------------------------|
A|--0-00002-2---023-3---032-----0-|   (2x)
E|--------------------------3-----|

(2:41)

(2:49) Solo:
G|--------------------------------|
D|--------------------------------|   (4x)
A|--0-00002-2---023-3---032-----0-|
E|--------------------------3-----|

(3:05) Refrão:
G|--------------------------------|--------------------------------|
D|--------------------------------|--------------------------------|
A|--0-3-00----------------------0-|--0-3-00----------------------0-|
E|--------3-3---331-1---113-3-3---|--------3-3---331-1---1-0-2-4---|  

G|--------------------------------|--------------------------------|
D|--------------------------------|--------------------------------|   (2x)
A|--0-3-00----------------------0-|--0-3-00----------------------0-|
E|--------3-3---331-1---113-3-3---|--------3-3---331-1---1-0-2-4---|

(3:37) Outro:
G|--------------------------------|
D|--------------------------------|
A|--0-00002-2---023-3---032-----0-|
E|--------------------------3-----
Composición de Michael Jackson
Colaboración y revisión:
  • Johannes Merschbacher
61 vistas

0 comentarios

Ver todos los comentarios

¿Lograste tocar?

0 Tocaron 0 Aún no

¡Graba un video tocando Smooth Criminal y envíanoslo!

00:00 / 00:00
Outros vídeos desta música
Repetir Calidad Automático
Outros vídeos desta música
00:00 / 00:00
Automático
OK