Cifra Club

Evening Wear

Mindless Self Indulgence

Cifrado: Principal (guitarra y guitarra eléctrica)
Selo Cifra Club: esta cifra foi revisada para atender aos critérios oficiais da nossa Equipe de Qualidade.
tono: D
E|-------------------------|
B|-------------------------|
G|-------------------------|
D|-6-6-6-6--x--9-9-9--1-1--|
A|-6-6-6-6--x--9-9-9--1-1--|
E|-6-6-6-6--x--9-9-9--1-1--|

E|-------------------------|
B|-------------------------|
G|-------------------------|
D|-6-6-6-6--x--9-9-9--1-1--|
A|-6-6-6-6--x--9-9-9--1-1--|
E|-6-6-6-6--x--9-9-9--1-1--|

E|-----------------------------------------|
B|-----------------------------------------|
G|-----------------------------------------|
D|-6-6-6-6--x--9-9-9--1-1--6-6-6-6--4-4-4-4|
A|-6-6-6-6--x--9-9-9--1-1--6-6-6-6--4-4-4-4| Repeat
E|-6-6-6-6--x--9-9-9--1-1--4-4-4-4--4-4-4-4|

Chorus:

E|-----------------------------|
B|-----------------------------|
G|-----------------------------|
D|-6-6-6-6--9-9-9-9--1--8-8-8-8|
A|-6-6-6-6--9-9-9-9--1--8-8-8-8|
E|-6-6-6-6--9-9-9-9--1--8-8-8-8|

E|-----------------------------|
B|-----------------------------|
G|-----------------------------|
D|-6-6-6-6--9-9-9-9--1--8-8-8-8|
A|-6-6-6-6--9-9-9-9--1--8-8-8-8|
E|-6-6-6-6--9-9-9-9--1--8-8-8-8|

E|------------------------------|
B|------------------------------|
G|------------------------------|
D|-6-6-6-6--9-9-9-9--1--8-8-8-8-|
A|-6-6-6-6--9-9-9-9--1--8-8-8-8-|
E|-6-6-6-6--9-9-9-9--1--8-8-8-8-|

E|---------------|
B|---------------|
G|---------------|
D|-(11)-(10)-(11)| x3
A|-(11)-(10)-(11)|
D|-(11)-(10)-(11)|

Bop Bop:

E|--------------------------------|
B|--------------------------------|
G|--------------------------------|
D|--------------------------------| x2
A|-------4-4-44-6---2-2-2--------2|
E|-6-6-6------------------4-4-44--|

Verse:

E|-------------------------|
B|-------------------------|
G|-------------------------|
D|-6-6-6-6--x--9-9-9--1-1--|
A|-6-6-6-6--x--9-9-9--1-1--|
E|-6-6-6-6--x--9-9-9--1-1--|

E|-------------------------|
B|-------------------------|
G|-------------------------|
D|-6-6-6-6--x--9-9-9--1-1--|
A|-6-6-6-6--x--9-9-9--1-1--|
E|-6-6-6-6--x--9-9-9--1-1--|

E|-----------------------------------------|
B|-----------------------------------------|
G|-----------------------------------------|
D|-6-6-6-6--x--9-9-9--1-1--6-6-6-6--4-4-4-4|
A|-6-6-6-6--x--9-9-9--1-1--6-6-6-6--4-4-4-4| Repeat
E|-6-6-6-6--x--9-9-9--1-1--4-4-4-4--4-4-4-4|

Chorus:

E|-----------------------------|
B|-----------------------------|
G|-----------------------------|
D|-6-6-6-6--9-9-9-9--1--8-8-8-8|
A|-6-6-6-6--9-9-9-9--1--8-8-8-8|
E|-6-6-6-6--9-9-9-9--1--8-8-8-8|

E|-----------------------------|
B|-----------------------------|
G|-----------------------------|
D|-6-6-6-6--9-9-9-9--1--8-8-8-8|
A|-6-6-6-6--9-9-9-9--1--8-8-8-8|
E|-6-6-6-6--9-9-9-9--1--8-8-8-8|

E|------------------------------|
B|------------------------------|
G|------------------------------|
D|-6-6-6-6--9-9-9-9--1--8-8-8-8-|
A|-6-6-6-6--9-9-9-9--1--8-8-8-8-|
E|-6-6-6-6--9-9-9-9--1--8-8-8-8-|

E|---------------|
B|---------------|
G|---------------|
D|-(11)-(10)-(11)| x3
A|-(11)-(10)-(11)|
D|-(11)-(10)-(11)|

Bop Bop:

E|--------------------------------|
B|--------------------------------|
G|--------------------------------|
D|--------------------------------| x2
A|-------4-4-44-6---2-2-2--------2|
E|-6-6-6------------------4-4-44--|

Bridge:

E|-------------------------------------|
B|-------------------------------------|
G|-------------------------------------|
D|-------8-8---------------------------| x4
A|-6-6---6-6--2-2---1---2--------------|
E|-6-6--------2-2---1---2--------------|


Chorus:

E|-----------------------------|
B|-----------------------------|
G|-----------------------------|
D|-6-6-6-6--9-9-9-9--1--8-8-8-8|
A|-6-6-6-6--9-9-9-9--1--8-8-8-8|
E|-6-6-6-6--9-9-9-9--1--8-8-8-8|

E|-----------------------------|
B|-----------------------------|
G|-----------------------------|
D|-6-6-6-6--9-9-9-9--1--8-8-8-8|
A|-6-6-6-6--9-9-9-9--1--8-8-8-8|
E|-6-6-6-6--9-9-9-9--1--8-8-8-8|

E|------------------------------|
B|------------------------------|
G|------------------------------|
D|-6-6-6-6--9-9-9-9--1--8-8-8-8-|
A|-6-6-6-6--9-9-9-9--1--8-8-8-8-|
E|-6-6-6-6--9-9-9-9--1--8-8-8-8-|

E|---------------------|
B|---------------------|
G|---------------------|
D|-6-6-6-6--9-9-9-9--1-|
A|-6-6-6-6--9-9-9-9--1-|
E|-6-6-6-6--9-9-9-9--1-|

E|---------------|
B|---------------|
G|---------------|
D|-(11)-(10)-(11)| x3
A|-(11)-(10)-(11)|
D|-(11)-(10)-(11)|

Bop Bop:

E|--------------------------------|
B|--------------------------------|
G|--------------------------------|
D|--------------------------------| x2
A|-------4-4-44-6---2-2-2--------2|
E|-6-6-6------------------4-4-44--|

E|-----|
B|-----|
G|-----|
D|--6--|
A|--6--|
E|--6--|
Otros videos de esta canción
    11 exhibiciones
      • ½ Tono
      • A
      • Bb
      • B
      • C
      • Db
      • D
      • Eb
      • E
      • F
      • F#
      • G
      • Ab
    • Agregar a la lista

    Afinação da cifra

    Afinador online

      Ops (: Contenido disponible solo en portugués.
      OK