Cifra Club

Debí Suponerlo

Morat

Cifrado: Principal (guitarra y guitarra eléctrica)
Selo Cifra Club: esta cifra foi revisada para atender aos critérios oficiais da nossa Equipe de Qualidade.
tono: Am
[Intro] C

[Tab - Intro]

E|------------------------------------------|
B|------------------------------------------|
G|---0---0---0---0--------------------------|
D|------------------------------------------|
A|-3---3---3---3----------------------------|
E|------------------------------------------|

[Tab - Dedilhado - Primeira Parte]

E|------------------------------------------|
B|------------------------------------------|
G|---0---0---0---0---0---0---0---0---0---0--|
D|------------------------------------------|
A|-3---3-------------------3---2---0---0----|
E|---------0---0---1---1--------------------|

E|------------------------------------------|
B|------------------------------------------|
G|---0---0---0---0---0----0-----------------|
D|------------------------------------------|
A|---------3---3---2----2-------------------|
E|-1---1------------------------------------|

[Primeira Parte]

   C                Em
Debí suponerlo, mi vida
              F                 C    G/B
Sabía a despedida desde que llegaste
    Am7                  F 
Querías cuidarme con mentiras
             C               G/B
Pero con tus ojos tú te delataste

[Pré-Refrão 1]

[Tab - Dedilhado - Pré-Refrão 1]
E|------------------------------------------|
B|------------------------------------------|
G|---0---0---0---0---0---0---0---0---0---0--|
D|------------------------------------------|
A|-0---0---------------------------0---0----|
E|---------3---3---1---1---1---1------------|

   Am7   G        F
Y tú, y tú te alejaste
   Am7   G
Y yo, y yo

[Refrão]

            F  
De haber sabido
                              C  G/B
Que ese abrazo se iba a terminar
          Am7                G
Yo te hubiera abrazado más fuerte
            F 
De haber sabido
                        C       G/B
Que tus besos se iban a acabar
         Am7                 G
Yo te hubiera robado el siguiente

          F                    G
Nunca pensé que te fuera a perder
              E7                    Am7
Me toca extrañar lo que no hice contigo
    G       F                      G
De haber sabido que era la última vez
             C
Nunca la hubiera sido

[Segunda Parte]

  Am7
¿Por qué no pedí perdón?

Si ya me es indiferente
       Em
Quien se quedó con la razón

Yo te digo abiertamente
     F
Que México duele cabrón

La Roma ya no se siente igual
 C                           G
Desde que tú estás con otra gente

[Pré-Refrão 2]

              Am7            
Porque ahora vivo con el corazón

Partido completamente en dos
 Em
No veo la televisión

Mi noticia más urgente es que
 F
México duele cabrón

La Roma ya no se siente igual
 C                           G
Desde que tú estás con otra gente

[Refrão]

De haber sabido

Que ese abrazo se iba a terminar
 C  G/B   Am7                G
Yo te hubiera abrazado más fuerte
            F       
De haber sabido
                        C  
Que tus besos se iban a acabar
    G/B   Am7                G
Yo te hubiera robado el siguiente

          F                    G
Nunca pensé que te fuera a perder
              E7                    Am7
Me toca extrañar lo que no hice contigo
    G       F                      G
De haber sabido que era la última vez
                  C   G/B
Nunca la hubiera sido

[Pré-Refrão 1]

   Am7   G        F
Y tú, y tú te alejaste
   Am7   G
Y yo, y yo

[Refrão]

          F                    G
Nunca pensé que te fuera a perder
              E7                    Am7
Me toca extrañar lo que no hice contigo
G             F                      G
  De haber sabido que era la última vez

Nunca la hubiera sido
00:00 / 00:00
Otros videos de esta canción
Repetir
Otros videos de esta canción
41.506 exhibiciones
    • ½ Tono
    • Am
    • Bbm
    • Bm
    • Cm
    • C#m
    • Dm
    • Ebm
    • Em
    • Fm
    • F#m
    • Gm
    • G#m
  • Agregar a la lista

Afinación de cifrado

Afinador online

    00:00 / 00:00
    OK