Cifra Club

Dead!

My Chemical Romance

Cifrado: Principal (guitarra y guitarra eléctrica)
tono: G
[Intro]

E|----------------------|---------------------|
B|----------------------|---------------------|
G|----------------------|---------------------|
D|5--5--5--5--5--5--5--4|5--5--5--5--5--5--5--|
A|5--5--5--5--5--5--5--4|5--5--5--5--5--5--5--|
E|3--3--3--3--3--3--3--2|3--3--3--3--3--3--3--|

E|--------------------------------------------|
B|15---15---15---15---15---15----------15b----|
G|14b--14b--14b--14b--14b--14b--14-12---------|
D|--------------------------------------------|
A|--------------------------------------------|
E|--------------------------------------------|

E|------15b--12-15-12----12--12---12---------|
B|15-12---------------15-----15b--15b--------|
G|-------------------------------------------|
D|-------------------------------------------|
A|-------------------------------------------|
E|-------------------------------------------|

E|-----------------12----14b--12-14-12----12-|
B|12--15-12-----12----12---------------15----|
G|----------14b------------------------------|
D|-------------------------------------------|
A|-------------------------------------------|
E|-------------------------------------------|

E|12---12---12---12---12---12------------------|
B|15b--15b--15b--15b--15b-----15-12-15-12----12|
G|----------------------------------------15---|
D|---------------------------------------------|
A|---------------------------------------------|
E|---------------------------------------------|

E|---------------------|
B|---------------------|
G|15-14-15-14----14-12-|
D|------------14-------|
A|---------------------|
E|---------------------|

[Verso]

(Palm muting)

E|-------------------|--------------------|-------------------|
B|-------------------|--------------------|-------------------|
G|-------------------|-----------4-4-4-4--|-------------------|
D|--5-5-5-5-5-5-5-5--|--4-4-4-4--4-4-4-4--|-------------------|
A|--5-5-5-5-5-5-5-5--|--4-4-4-4--2-2-2-2--|--2-2-2-2-2-2-2-2--|
E|--3-3-3-3-3-3-3-3--|--2-2-2-2-----------|--0-0-0-0-0-0-0-0--|

E|-------------------|
B|-------------------|
G|--5-5-5-5-5-5-5-5--|
D|--5-5-5-5-5-5-5-5--|
A|--3-3-3-3-3-3-3-3--|
E|-------------------|

[Variação]

G|-----------------|----------4-4-4-4-|----------------|
D|5----5----5------|-4-4-4-4--4-4-4-4-|----------------|
A|5----5----5---/\-|-4-4-4-4--2-2-2-2-|--2---2---2---2-|
E|3----3----3---/\-|-2-2-2-2----------|--0---0---0---0-|

E|-------------------|
B|-------------------|
G|--5-5-5-5-5-5-5-5--|
D|--5-5-5-5-5-5-5-5--|
A|--3-3-3-3-3-3-3-3--|
E|-------------------|

[Pré-Refrão]

E|-------------------|--------------|
B|-------------------|--------------|
G|-------------------|--------------|
D|--2~~~~-2-4-5------|---4-5h7--5---|
A|--0~~~~-0-4-5------|-5------------|
E|--0~~~~-0-2-3------|--------------|

[Refrão]

E|------------|------------|------------|------------|
B|------------|------------|------------|------------|
G|------------|--44444444--|--55555555--|--88887777--| 2x
D|--55555555--|--44444444--|--55555555--|--88887777--|
A|--55555555--|--22222222--|--33333333--|--66665555--|
E|--33333333--|------------|------------|------------|

[PRE-Verso]

D|--5-5-5-5-5-5-5-4--|--5-5-5-5-5-5-5------|
A|--5-5-5-5-5-5-5-4--|--5-5-5-5-5-5-5------|
E|--3-3-3-3-3-3-3-2--|--3-3-3-3-3-3-3------|

[Ponte]

B|--10-10-10-10-10-10-10-10--|-8--8--8--8-|
G|--x--x--x--x--x--x--x--x---|-x--x--x--x-|
D|--7--7--7--7--7--7--7--7---|-5--5--5--5-|
A|---------------------------|------------|

B|-7--7--7--7--|------------|------------|
G|-x--x--x--x--|-9--9--9--9-|-9--9--9--9-|
D|-4--4--4--4--|-x--x--x--x-|-x--x--x--x-|
A|-------------|-7--7--7--7-|-7--7--7--7-|

B|-8--8--8--8--|-7--7--7--7-|-8--7--8--7-|
G|-x--x--x--x--|-x--x--x--x-|-x--x--x--x-|
D|-5--5--5--5--|-4--4--4--4-|-5--4--5--4-|
A|-------------|------------|------------|

B|-12--13--12--13--|-12--13--12--13-|
G|-x---x---x---x---|-x---x---x---x--|
D|-10--11--10--11--|-10--11--10--11-|
A|-----------------|----------------|

B|-15-15-15-15-15-15-15-15-15-15-15-15|
G|-x--x--x--x--x--x--x--x--x--x--x--x-|
D|-12-12-12-12-12-12-12-12-12-12-12-12|
A|------------------------------------|

B|-17-17-17-17-|-17-17-|
G|-x--x--x--x--|-x--x--|
D|-14-14-14-14-|-14-14-|
A|-------------|-------|

[Solo]

E|--------------------------------|
B|----------------------------8-8-|
G|0--0-4-5-7--7b-7br-7-5-7--7-----|
D|--------------------------------|
A|--------------------------------|
E|--------------------------------|

E|--------------------------------|
B|--------------------------------|
G|-4b-5-4-2-4-2---2---------------|
D|--------------5---5-2-----------|
A|----------------------3---------|
E|--------------------------------|

E|--------------------------------|
B|--------------------------------|
G|--------------------------------|
D|-7--5---5-----------------------|
A|------7---7-3-5-3---------------|
E|------------------5-3-----------|

E|-5--2---------------------------|
B|------4-------------------------|
G|--------5--2--------------------|
D|-------------5--4---------------|
A|--------------------------------|
E|--------------------------------|

E|--3----3----3----3------------|
B|--3----3----3----3------------|
G|----5b---5b---5b---5b-4-5-3---|
D|------------------------------|
A|------------------------------|
E|------------------------------|

E|---------7-----------7----------|
B|-----------8-----------8--------|
G|-----7-9---------7-9------------|
D|-8-9---------8-9----------------|
A|--------------------------------|
E|--------------------------------|

E|----17p15----19p15----17p15----19p15---|
B|-15-------15-------15-------15-------15|
G|---------------------------------------|
D|---------------------------------------|
A|---------------------------------------| 2x
E|---------------------------------------|

E|--20p15----19p15----19-17-15--|
B|--------15-------15-----------|
G|------------------------------|
D|------------------------------|
A|------------------------------|
E|------------------------------|

E|-15--15--15--15-------|
B|-18b-18b-18b-18b------|

G|------------|--44444444--|--55555555--|-77777----| 4x
D|--55555555--|--44444444--|--55555555--|-77777-5-5|
A|--55555555--|--22222222--|--33333333--|-55555-5-5|
E|--33333333--|------------|------------|----------|

E|---------------------0|---|
B|---------------------0|---|
G|---------------------0|---|
D|5--5--5--5--5--5--5---|-5-|
A|5--5--5--5--5--5--5---|-5-|
E|3--3--3--3--3--3--3---|-3-|

And if your heart stops beating
I'll be here wondering
Did you get what you deserve?
The ending of your life
And if you get to heaven
I'll be here waiting, baby
To get what you deserve
The ending of your life
Won't wait
And my heart can't take this hurt

You heard the news that you're dead
I know I never had much nice to say
I'm thinking about you anyways
Take me from the hospital bed
(in audible)
And wouldnt it be great if we were dead
We're Dead!

So tired and Oh so squeamish
You never felt enough
To get what you deserve
The ending of your
And if you get to heaven
I'll be here waiting, baby
To get what you deserve
The ending of your life
Won't wait
And your heart can't take this hurt

You heard the news that youre dead
I know i never had much nice to say
I'm Thinking about you anyways
You're Dead
Before the hospital bed
Walking around and you're kissing my hand
And we're wondering away that's what
We're

And in my honest observation
During this operation
Found a complication in your heart so wrong
Cause now you've gone
Maybe just two weeks to live
Is that the most ,THE MOST THAT YOU CAN GIVE?!
Let's go

Na na na na na
Na na na na na
Na na na na na
Na na na na na
Na na na na na
Na na na na na

Did you just do
That here and now
It's just a joke
And why are we broke
It's just a joke
And we'd you go
It's just a joke
And what have I done? Dead!
00:00 / 00:00
Otros videos de esta canción
Repetir
Otros videos de esta canción
Composición de My Chemical Romance
Colaboración y revisión:
  • Dragão Grelhado
  • David Gloria
2.087 vistas
    • ½ Tono
    • A
    • Bb
    • B
    • C
    • Db
    • D
    • Eb
    • E
    • F
    • F#
    • G
    • Ab
  • Agregar a la lista

    0 comentarios

    Ver todos los comentarios

    ¿Lograste tocar?

    2 Tocaron 4 Aún no

    ¡Graba un video tocando Dead! y envíanoslo!

    00:00 / 00:00
    OK