Cifra Club

Aprenda

Dead!

My Chemical Romance

Tab de bajo: Principal
ALBUM:  The Black Parade

Intro-
G|--rest------|
D|--for-------|
A|--four------|
E|--measures--|

G|-----------------------------------------------------------------------|
D|-----------------------------------------------------------------------|
A|----------------------------2-2-2-2-------------------3-3-3-3-3-3-3-3--|
E|--3-3-3-3-3-3-3-3--2-2-2-2-----------0-0-0-0-0-0-0-0-------------------|


Verse 1-
G|-----------------------------------------------------------------------|
D|-----------------------------------------------------------------------|
A|----------------------------2-2-2-2-------------------3-3-3-3-3-3-3-3--|
E|--3-3-3-3-3-3-3-3--2-2-2-2-----------0-0-0-0-0-0-0-0-------------------|
pm  . . . . . . . .  . . . .  . . . .  . . . . . . . .  . . . . . . . . 

G|-----------------------------------------------------------------------|
D|-----------------------------------------------------------------------|
A|----------------------------2-2-2-2-------------------3-3-3-3-3-3-3-3--|
E|--3-3-3-3-3-3-3-3--2-2-2-2-----------0-0-0-0-0-0-0-0-------------------|
pm  .   .   .   .    . . . .  . . . .  . . . . . . . .  . . . . . . . .


Pre-Chorus
G|-------------------|
D|---------------0~--|
A|--0~-------3~------|
E|-------------------|


Chorus  x2
G|----------------------------------------------------------------------|
D|-----------------------------------------------------0-0-0-0-0-0-0-0--|
A|-------------------2-2-2-2-2-2-2-2--3-3-3-3-3-3-3-3-------------------|
E|--3-3-3-3-3-3-3-3-----------------------------------------------------|


Pre-Verse
G|------------------------|
D|------------------------|
A|------------------------|
E|----------3--------15/--|


Verse 2-
G|-----------------------------------------------------------------------|
D|-----------------------------------------------------------------------|
A|----------------------------2-2-2-2-------------------3-3-3-3-3-3-3-3--|
E|--3-3-3-3-3-3-3-3--2-2-2-2-----------0-0-0-0-0-0-0-0-------------------|
pm  .   .   .   .    . . . .  . . . .  .   .   .   .    . . . . . . . . 

G|-----------------------------------------------------------------------|
D|-----------------------------------------------------------------------|
A|----------------------------2-2-2-2-------------------3-3-3-3-3-3-3-3--|
E|--3-3-3-3-3-3-3-3--2-2-2-2-----------0-0-0-0-0-0-0-0-------------------|
pm  .   .   .   .    . . . .  . . . .  .   .   .   .    . . . . . . . .


Pre-Chorus
G|-------------------|
D|---------------0~--|
A|--0~-------3~------|
E|-------------------|


Chorus  x2
G|----------------------------------------------------------------------|
D|-----------------------------------------------------0-0-0-0-0-0-0-0--|
A|-------------------2-2-2-2-2-2-2-2--3-3-3-3-3-3-3-3-------------------|
E|--3-3-3-3-3-3-3-3-----------------------------------------------------|


Bridge-
G|-------------------------------------------------------------------|
D|------------------------------------------1-1-1-1-2-2-2-2-0-0-0-0--|
A|--0-0-0-0-0-0-0-0-5-5-5-5-3-3-3-3-2-2-2-2--------------------------|
E|-------------------------------------------------------------------|
pm  . . . . . . . . . . . . . . . . . . . . . . . . . . . . . . . . 

G|-------------------------------------------------------------------|
D|-------------------------------------------------------------------|
A|--3-3-3-3-2-2-2-2-0-0-0-0---------3-3-3-3-3-3-3-3-3-3-3-3-3-3-3-3--|
E|--------------------------3-3-3-3----------------------------------|
pm  . . . . . . . . . . . . . . . . . . . . . . . . . . . . . . . .
                                                     ^slowly lift pm


Solo 
G|-----------------------------------------------------------------------|
D|-----------------------------------------------------------------------|
A|----------------------------2-2-2-2-------------------3-3-3-3-3-3-3-3--|
E|--3-3-3-3-3-3-3-3--2-2-2-2-----------0-0-0-0-0-0-0-0-------------------|
    repeat line above, then play line below.

G|-----|
D|-----|
A|-----|
E|--3--|


End

(rest)....

1!   2!   1! 2! 3! 4!
  
G|----------------------------------------------------------------------|
D|-----------------------------------------------------0-0-0-0-0-0-0-0--|
A|-------------------2-2-2-2-2-2-2-2--3-3-3-3-3-3-3-3-------------------|
E|--3-3-3-3-3-3-3-3-----------------------------------------------------|

  play line above 4 times then play line below

G|-------------|
D|-------------|
A|-------------|
E|--3-------3--|



Fin.

any questions, comments, concerns... email me at * or just comment.

thanks!  enjoy!
Composição de My Chemical Romance
84 reproducciones

0 comentarios

Ver todos os comentários

¿Conseguiste tocar?

2 Tocaram 0 Ainda não

Grave um vídeo tocando Dead! e nos envie!

00:00 / 00:00
outros vídeos desta música
repetir qualidade Automático
Outros vídeos desta música
00:00 / 00:00
Automático
OK