Cifra Club

Aprenda

Noite Feliz

Natal

Tablatura: Versão 7 (guitarra)
tono: E
E|--------------------------------------------------
B|--------------------------------------------------
G|--------------------------------------------------
D|--------------------------------------------------
A|-----------------5-5-2-3-3------------------------
E|-3-5-3-0-3-5-3-0----------------------------------

E|--------------------------------------------------
B|--------------------------------------------------
G|--------------------------------------------------
D|-3-2-0-------------3-2-0------------3-2-0---------
A|-------3-5-3-0-5-5-------3-5-3-0-5-5--------------

E|--------------------------------------------------
B|--------------------------------------------------
G|--------------------------------------------------
D|-0-0-3-0-----1-----------------------------------------
A|---------2-3---3---------5-3---------------------------
E|-----------------3-0-3-1------------------------------

Composição de Franz Gruber / Joseph Mohr
Colaboración y revision:
  • Igor henrique
78 reproducciones
    • ½ Tono
    • A
    • Bb
    • B
    • C
    • Db
    • D
    • Eb
    • E
    • F
    • F#
    • G
    • Ab
  • Adicionar à lista

    0 comentarios

    Ver todos os comentários

    ¿Conseguiste tocar?

    2 Tocaram 0 Ainda não

    Grave um vídeo tocando Noite Feliz e nos envie!

    00:00 / 00:00
    outros vídeos desta música
    repetir qualidade Automático
    Outros vídeos desta música
    00:00 / 00:00
    Automático
    Capítulos
    • Início
    • Acordes da música
    • Ritmo simples
    • Tocando com ritmo simples
    • Tocando com ritmo#02
    • Ritmo#02
    • Encerramento
    OK