Cifra Club

A Cor

Natiruts

Cifrado: Versão 2 (guitarra y guitarra eléctrica)
tono: E
Solo:
E|-------------------14b--~~~~~~14b/b---
B|------12----12-12--12---------12------
G|-7/13----13---------------------------
D|--------------------------------------
A|--------------------------------------
E|--------------------------------------

E|-------11-----------------------------
B|----14-14b-12-12-12---12-14-11-12-----
G|--------------------------------------
D|----------------------------------13--
A|--------------------------------------
E|--------------------------------------

Essa é a parte mais difícil para mim, não compreendi bem a passagem...
E|--------------------------------------
B|-------------------------9-9----------
G-6-6h8h6---8-8-8h11h8-11--------------
D|---------9----------------------------
A|--------------------------------------
E|--------------------------------------

E|----------------14-----14b-------------
B-9h12h9-12-14b---------14b--12---12---
G|------------------------------13---13-
D|--------------------------------------
A|--------------------------------------
E|--------------------------------------

E|-14b-14b16b14~~-----------------------
B|-12-----------------------------------
G|--------------------------------------
D|--------------------------------------
A|--------------------------------------
E|--------------------------------------

E|---7/16---16----16----16----16--------
B|--~7/--16----16----16----16----16-----
G|--------------------------------------
D|--------------------------------------
A|--------------------------------------
E|--------------------------------------

E|--16---16----16----16-19-16--16~~-----
B|----16----16----16--------------------
G|--------------------------------------
D|--------------------------------------
A|--------------------------------------
E|--------------------------------------

E|-----16------16-----16-----16-----16-------
B|--------19b-----19b----19b----19b----19b---
G|-------------------------------------------
D|-------------------------------------------
A|-------------------------------------------
E|-------------------------------------------

E|--------------------------------------
B|-19h16----16--------------------------
G|-------18------20b/16h18h16h18-20h18--
D|--------------------------------------
A|--------------------------------------
E|--------------------------------------

E|--------------------------------------
B|--------------------------12----------
G|-15h16h15/13--13-13/11-11----11h13----
D|--------------------------------------
A|--------------------------------------
E|--------------------------------------

E|--------------------------------------------------------
B|--------------------------------------------------------
G|-11h13-11h13-11h13h11h13h11h13h11h13h11h13h11h13--------
D|--------------------------------------------------------
A|--------------------------------------------------------
E|--------------------------------------------------------

E|---11----------14---------------------
B|---16b14-12h11------------------------
G|------------------13------------------
D|--------------------------------------
A|--------------------------------------
E|--------------------------------------

Aprox. 8 vezes essa parte
E|--------------------------------------
B|---12b------12-14---------------------
G|---------13---------------------------
D|--------------------------------------
A|--------------------------------------
E|--------------------------------------

E|-----14b~~-----~12/16-16-18-19--------
B|-----12---------12/16-----------------
G|--------------------------------------
D|--------------------------------------
A|--------------------------------------
E|--------------------------------------

E|----18h19h18h16----18h16-----16-19-16---
B|-----------------19------19-----------19-
G|--------------------------------------
D|--------------------------------------
A|--------------------------------------
E|--------------------------------------

E|--------------------------------------
B|---16h14h16----12h11-12h11h12h11------
G|--------------------------------------
D|--------------------------------------
A|--------------------------------------
E|--------------------------------------

E|--------------------------------------
B|---12h11h12h11-12h11h12h11.....-------
G|--------------------------------------
D|--------------------------------------
A|--------------------------------------
E|--------------------------------------
Composición de Natiruts
Colaboración y revisión:
  • Morgan Sobrenome
321 vistas
    • ½ Tono
    • A
    • Bb
    • B
    • C
    • Db
    • D
    • Eb
    • E
    • F
    • F#
    • G
    • Ab
  • Agregar a la lista

    0 comentarios

    Ver todos los comentarios

    ¿Lograste tocar?

    0 Tocaron 0 Aún no

    ¡Graba un video tocando A Cor y envíanoslo!

    00:00 / 00:00
    Outros vídeos desta música
    Repetir Calidad Automático
    Outros vídeos desta música
    00:00 / 00:00
    Automático
    OK