Cifra Club

A Cor

Natiruts

Tab de bajo: Acustico
Riff Principal:
G|---------------------------------------------------------------------|
D|-----3--------------5------------------------------------------------|
A|---3---5--3-5-4-3-5---6--5-6-6---------------------------------------|
E|-3-------------------------------------------------------------------|


Riff Principal (Variação):
G|---------------------------------------------------------------------|
D|-----3--------------5------------------------------------------------|
A|---3---5--3-5-4-3-5---6----------------------------------------------|
E|-3-------------------------------------------------------------------|


Refrão:
G|---------------------------------------------------------------------| 
D|---------------------------------------------------------------------|
A|-6---------6/8-6-----------------------------------------------------| (4x)
E|---6-5-6-1-------6-8-8-8--0-3-5--------------------------------------|


Ponte: (Todo amor, naquela pétala de flor...):
G|---------------------------------------------------------------------| 
D|---------------------------------------------------------------------|
A|-5-5-5---5-5-5-3-3-3---3-3-3-----------------------------------------| (4x)
E|-------5-------------3-----------------------------------------------|
Composición de Natiruts
Colaboración y revisión:
  • Walter Brow
2 vistas

0 comentarios

Ver todos los comentarios

¿Lograste tocar?

0 Tocaron 0 Aún no

¡Graba un video tocando A Cor y envíanoslo!

00:00 / 00:00
Outros vídeos desta música
Repetir Calidad Automático
Outros vídeos desta música
00:00 / 00:00
Automático
OK