Cifra Club

Aprenda

Andei Só

Natiruts

Tab de bajo: Baixo-original
Deixei a letra no final da tab pra você encaixa-la 

Essa é uma versão de estúdio, ouça bem a música para encaixar a tab. 

Introdução
G------------------------------|
D-----2-----------------2------|
A-4-4-----2------2--4-4-----2--|
E-------4----4-4----------4----|

G-----------------------------------------|
D-----------------------------------------|                
A---4-2----------------4-2----------------|
E-4-----4-3-2-2-2-0-4------4-3-2-2-2-0-4--|

G-----------------------------------------|
D-------------2------------------2--------|
A-----2--4-4------2-------2--4-4-----2----|
E-4-4-----------4-----4-4----------4------|

G-----------------------------------------|
D-----------------------------------------|                
A---4-2----------------4-2-------------2--|
E-4-----4-3-2-2-2-0-4------4-3-2-2-2-0----|

Base
G-----------------------------------------|
D-----------------------------------------|
A-4-2-4--------------------2-2-2-----2-2--|
E--------2-4-2-4--0-2-0-2--------4-4------|

G-----------------------------------------|
D-----------------------------------------|
A-4-2-4--------------------2-2-2-----2-2--|
E--------4-5-4-5--0-2-0-2--------4-4------|

G-----------------------------------------|
D-----------------------------------------|
A-4-2-4--------------------2-2-2-----2-2--|
E--------2-4-2-4--0-2-0-2--------4-4------|


G-----------------------------------------|
D-----------------------------------------|
A-4-2-4--------------------2-2-2-----2-2--|
E--------4-5-4-5--0-2-0-2--------4-4------|


G-----------------------------------------|
D-----------------------------------------|
A-4-2-4--------------------2-2-2-----2-2--|
E--------2-4-2-4--0-2-0-2--------4-4------|

G-----------------------------------------|
D-----------------------------------------|
A-4-2-4--------------------2-2-2-----2-2--|
E--------4-5-4-5--0-2-0-2--------4-4------|

G-----------------------------------------|
D-----------------------------------------|
A-4-2-4--------------------2-2-2-----2-2--|
E--------2-4-2-4--0-2-0-2--------4-4------|

Variação
G-------------------------------------------|
D-------------------------------------------|
A-4-2-4-4------------------------2-2---2--2-|
E----------4-5-4-5-5--0-2-0-2-2------4------|

G---------------------------------------------|
D---------------------------------------------|
A-4-2-4-------------------------2-2-2-----2-2-|
E----------2-4-2-4---0-2-0-2-2--------4-4-----|

Primeiro Refrão
G-------------------------------------------------|
D-------------------------------------------------|
A-4-4-4--4--------------------------2-2-2-----2-2-|
E-----------0-4-4-4--4--0-2-2-2--2--------4-4-----|

G-------------------------------------------|
D-------------------------------------------|
A-4-2-4--------------------2-2-2-----2-2----|
E--------4-2-4-2--0-2-0-2--------4-4--------|

G-------------------------------------------------|
D-------------------------------------------------|
A-4-4-4--4--------------------------2-2-2-----2-2-|
E-----------0-4-4-4--4--0-2-2-2--2--------4-4-----|

G-------------------------------------------|
D-------------------------------------------|
A-4-2-4--------------------2-2-2-----2-2----|
E--------4-2-4-2--0-2-0-2--------4-4--------|

G-------------------------------------------|
D-------------------------------------------|
A-4-4-4--4--------------------------2-2-----|
E-----------0-4-4-4--4--0-2-2-2--2----------|

Interlúdio
G------------------------------|
D-----2-----------------2------|
A-4-4-----2------2--4-4-----2--|
E-------4----4-4----------4----|

G-----------------------------------------|
D-----------------------------------------|                
A---4-2----------------4-2-------------2--|
E-4-----4-3-2-2-2-0-4------4-3-2-2-2-0----|

Base
G-----------------------------------------|
D-----------------------------------------|
A-4-2-4--------------------2-2-2-----2-2--|
E--------2-4-2-4--0-2-0-2--------4-4------|

G-----------------------------------------|
D-----------------------------------------|
A-4-2-4--------------------2-2-2-----2-2--|
E--------4-5-4-5--0-2-0-2--------4-4------|

G-----------------------------------------|
D-----------------------------------------|
A-4-2-4--------------------2-2-2-----2-2--|
E--------2-4-2-4--0-2-0-2--------4-4------|


G-----------------------------------------|
D-----------------------------------------|
A-4-2-4--------------------2-2-2-----2-2--|
E--------4-5-4-5--0-2-0-2--------4-4------|


G-----------------------------------------|
D-----------------------------------------|
A-4-2-4--------------------2-2-2-----2-2--|
E--------2-4-2-4--0-2-0-2--------4-4------|

G-----------------------------------------|
D-----------------------------------------|
A-4-2-4--------------------2-2-2-----2-2--|
E--------4-5-4-5--0-2-0-2--------4-4------|

G-----------------------------------------|
D-----------------------------------------|
A-4-2-4--------------------2-2-2-----2-2--|
E--------2-4-2-4--0-2-0-2--------4-4------|

Variação
G-------------------------------------------|
D-------------------------------------------|
A-4-2-4-4------------------------2-2---2--2-|
E----------4-5-4-5-5--0-2-0-2-2------4------|

G---------------------------------------------|
D---------------------------------------------|
A-4-2-4-------------------------2-2-2-----2-2-|
E----------2-4-2-4---0-2-0-2-2--------4-4-----|

Segundo Refrão
G-------------------------------------------------|
D-------------------------------------------------|
A-4-4-4--4--------------------------2-2-2-----2-2-|
E-----------0-4-4-4--4--0-2-2-2--2--------4-4-----|

G-------------------------------------------|
D-------------------------------------------|
A-4-2-4--------------------2-2-2-----2-2----|
E--------4-2-4-2--0-2-0-2--------4-4--------|

G-------------------------------------------------|
D-------------------------------------------------|
A-4-4-4--4--------------------------2-2-2-----2-2-|
E-----------0-4-4-4--4--0-2-2-2--2--------4-4-----|

G-------------------------------------------|
D-------------------------------------------|
A-4-2-4--------------------2-2-2-----2-2----|
E--------4-2-4-2--0-2-0-2--------4-4--------|

G-------------------------------------------------|
D-------------------------------------------------|
A-4-4-4--4--------------------------2-2-2-----2-2-|
E-----------0-4-4-4--4--0-2-2-2--2--------4-4-----|

G-------------------------------------------|
D-------------------------------------------|
A-4-2-4--------------------2-2-2-----2-2----|
E--------4-2-4-2--0-2-0-2--------4-4--------|

G-------------------------------------------|
D-------------------------------------------|
A-4-4-4--4--------------------------2-2-----|
E-----------0-4-4-4--4--0-2-2-2--2----------|

Final
G------------------------------|
D-----2-----------------2------|
A-4-4-----2------2--4-4-----2--|
E-------4----4-4----------4----|

G-----------------------------------------|
D-----------------------------------------|                
A---4-2----------------4-2-------------2--|
E-4-----4-3-2-2-2-0-4------4-3-2-2-2-0----|

(BASE)

Preciso demonstrar pra ela
Que mereço seu tempo pra dizer
Um pouco das ideias novas
Dos lugares de onde viajei
Se ela botar fé na minha história
Que é de rocha e vem do coração
Vou estender o pano mais bonito
Feito na ilha de Madagascar

Um Bob, um Djavan, um Jimmy na viola
Humildade de quem sabe onde quer chegar
Reparei a flor no seu vestido
Só guerreiro de aura boa pode merecer
E ela parou, olhou, sorriu
Me deu um beijo e foi embora
Não vi mais a gata
Mas tenho minha gaita pra me consolar

(PRIMEIRO REFRÃO)

Andei só pela noite
Cantei um reggae pros cachorros da rua
Andei só pela noite
Cantei um verso daquele velho samba pra lua
Andei só pela noite

(BASE)

Preciso demonstrar pra ela
Que mereço seu tempo pra dizer
Um pouco das ideias novas
Dos lugares de onde viajei
Se ela botar fé na minha história
Que é louca, mas não é besteira não
Vou estender o pano mais bonito
Feito na ilha de madagascar

Um Bob, um Djavan, um Jimmy na viola
Humildade de quem sabe onde quer chegar
Reparei a flor no seu vestido
Só guerreiro de aura boa pode merecer
E ela parou, olhou, sorriu
Me deu um beijo e foi embora
Não vi mais a gata
Mas tenho minha gaita pra me consolar

(SEGUNDO REFRÃO)

Andei só pela noite
Cantei um reggae pros cachorros da rua
Andei só pela noite
Cantei um verso daquele velho samba pra lua
Andei só pela noite
Tudo bem a vida continua
Andei só pela noite

_________________________________________________________________
Autor: Werick (werick.pereira@gmail.com)
Compositor Natiruts
Colaboración y revision:
  • Werick Pereira
35 reproducciones

0 comentarios

Mostrar mais comentários

¿Conseguiste tocar?

3 Tocaron 0 Ainda não

Grave um vídeo tocando Andei Só e mande pra gente!

00:00 / 00:00
outros vídeos desta música
repetir qualidade Automático
Outros vídeos desta música
00:00 / 00:00
Automático
OK