Cifra Club

Sincerely Me

New Found Glory

Tab de bajo: Versão 2
tabbed by: Matthew Chute (*)
*

standard tunning
 
this tab is pretty accurate. theres some carzy tabs going around and i dunno 
what the tabber was on when he tabbed em but here goes.


          verse
G|---------------------------4-------|
D|------4-5----4-5-----4-5-4---5-----|
A|---------0-0----3-3-3--------------|  x8
E|---3-3-----------------------------|

          chorus

G|------------------------|
D|------------------------|
A|--------0-0--3333-00----| x4
E|---3-3------------------|

    right after chrous
G|------------------------|
D|------------------------|
A|------------------------| x4
E|---3333-2222-000-22-----|

         verse
G|---------------------------4-------|
D|------4-5----4-5-----4-5-4---5-----|
A|---------0-0----3-3-3--------------|  x8
E|---3-3-----------------------------|

        chorus
G|------------------------|
D|------------------------|
A|--------0-0--3333-00----| x8
E|---3-3------------------|

    right after chrous
G|------------------------|
D|------------------------|
A|------------------------| x4
E|---3333-2222-000-22-----|       

       bridge
G|------------------------------------------------------------|
D|------------------------------------------------------------|
A|--------------00000000000-33333333333-----------5----------5|
E|--33333333333-------------------------3333--3333--3333-3333-|

           chorus
G|---------------------------4-------|
D|------4-5----4-5-----4-5-4---5-----|
A|---------0-0----3-3-3--------------|  x4
E|---3-3-----------------------------|

G|------------------------|
D|------------------------|
A|--------0-0--3333-00----| x4
E|---3-3------------------|

G|--------------------------|
D|--------------------------|
A|--------0000--33333333----| x4
E|---3333-------------------|

    end on
E|--3------|

there you go. have fun. for questions email me.
xoxo
matt
Composición de New Found Glory

0 comentarios

Ver todos los comentarios

¿Lograste tocar?

0 Tocaron 0 Aún no

¡Graba un video tocando Sincerely Me y envíanoslo!

00:00 / 00:00
Outros vídeos desta música
Repetir Calidad Automático
Outros vídeos desta música
00:00 / 00:00
Automático
OK