Cifra Club

Smells Like Teen Spirit

Nirvana

Tab de bajo: Versão 7
riff 1:

|-----------------------|
|-----------------------|
|------11-1/3-----44-43-|
|-11-11------44-44------|

toca isso durante todos os versos, até entrar no refrão

no refrão, toca-se:

riff 2:

      |muito rápido |     |muito rápido |   
|-----|-------------|-----|-------------|-
|-----|-------------|-----|-------------|-
|-----|-11-11-11-1-1|-----|-44-44-44-4-4|-
|-11-1--------------44-4------------------

ai, o "pós-refrão" é:

riff 3:
|-----------------------------|
|-----------------------------|
|----------2/-----------------|
|-1-0-1-2-------1-0h1-1/8-6-3-|

no solo fica o riff 2, na parte final do "the denial" também fica o riff 2 até terminar a música.

...
..
.
00:00 / 00:00
Otros videos de esta canción
Repetir
Otros videos de esta canción
Composición de Dave Grohl / Krist Novoselic / Kurt Cobain
Colaboración y revisión:
  • fernando athayde
27 exhibiciones
00:00 / 00:00
OK