Enviar cifraEntrar

Smells Like Teen Spirit

Nirvana

Contrabajo: Principal
reproducciones 2.673
  Intro: 

G|--------| 
D|--------| 
A|--------| 
E|-1/6\1--| 

G|-----------------------------------------------------------------| 
D|-----------------------------------------------------------------| 
A|-------1-1-1-1/3-------4-4-4-4\-------1-1-1-1/3-------4-4-4-4/---| 
E|-1-1-1-----------4-4-4----------1-1-1-----------4-4-4----------1-| 

Verse: 

G|-----------------------------------------------------------------| 
D|-----------------------------------------------------------------| 
A|---------1-1-1/3---------4-4-4\---------1-1-1/3---------4-4-4/---| 
E|-1-1-1-----------4-4-4----------1-1-1-----------4-4-4------------| 

Chorus: 

G|-----------------------------------------------------------------| 
D|-----------------------------------------------------------------| 
A|-------1-1-1-1/3-------4-4-4-4\-------1-1-1-1/3-------4-4-4-4/---| 
E|-1-1-1-----------4-4-4----------1-1-1-----------4-4-4----------1-| 

Bridge: 

G|-------------------------------------------------------------| 
D|-------------------------------------------------------------| 
A|-------------3-3-3/4----------------------3-3-3/4------------| 
E|-1-1--2-2-2----------6-6-5-4--1-1--2-2-2----------6-6-5-4--1-|
  • 1
  • 2
  • 3
  • 4
  • 5
  • 6
  • 7
  • 8
  • 9
  • 10
  • 11
  • 12

    0 comentarios

      mostrar mas comentarios
      00:00 / 00:00
      outros vídeos desta música
      repetirqualidadeautomática
      • automática
      Outro vídeos desta música
        00:00 / 00:00
        automática
        • automática
        cerrarplay/pause subir/bajar velocidad
        cerrar
        OK
        Feedback