Cifra Club

Smells Like Teen Spirit

Nirvana

Tab de bajo: Original-completa
(2x)       -1--11-------4--44-----------|
           -------1111--------4444------|
           -----------------------------|
           -----------------------------|

(4x)       -1111-------4444-------------|
           ------1111------4444-3-------|
           -----------------------------|
           -----------------------------|

(5X)       -1--11-------4--44-----------|
           -------1111--------4444------|
           -----------------------------|
           -----------------------------|

(1x)       ---11121---2/6------------11121---2/6---------|
           ---------------333--222---------------333--222|
           ----------------------------------------------|
           ----------------------------------------------|

(10x)      1111-------4444-------------|
           ------1111------4444-3-------|
           -----------------------------|
           -----------------------------|

(6x)       -1--11-------4--44-----------|
           -------1111--------4444------|
           -----------------------------|
           -----------------------------|

(2x)       ---11121---2/6------------11121---2/6---------|
           ---------------333--222---------------333--222|
           ----------------------------------------------|
           ----------------------------------------------|

(4x)       -1--11-------4--44-----------|
           -------1111--------4444------|
           -----------------------------|
           -----------------------------|

(10x)      -1111-------4444-------------|
           ------1111------4444-3-------|
           -----------------------------|
           -----------------------------|

(10x)      -1--11-------4--44-----------|
           -------1111--------4444------|
           -----------------------------|
           -----------------------------|
00:00 / 00:00
Otros videos de esta canción
Repetir
Otros videos de esta canción
Composición de Dave Grohl / Krist Novoselic / Kurt Cobain
Colaboración y revisión:
  • Silvio Jr
329 exhibiciones
00:00 / 00:00
OK