Cifra Club

Smells Like Teen Spirit

Nirvana

Tab de bajo: Simplificada-completa
G-----------------------------------------------|
D-----------------------------------------------| (2x)
A--------1-1------------4-4---------------------|
E--1--1-1--------4--4-4-------------------------|


G-----------------------------------------------|
D-----------------------------------------------| (10x)
A------1-1-1-1-----------4-4-4-4----------------|
E-1-1-1-1-----------4-4-4-4---------------------|


G-----------------------------------------------|
D-----------------------------------------------| (6x)
A--------1-1------------4-4---------------------|
E--1---1-1--------4--4-4------------------------|


G-----------------------------------------------|
D-----------------------------------------------| (2x)
A-------------3-3-3-3-1-1-----------------------|
E--1-1-1-1-2-2-----------4-4--------------------|


G-----------------------------------------------|
D-----------------------------------------------| (10x)
A------1-1-1-1-----------4-4-4-4----------------|
E-1-1-1-1-----------4-4-4-4---------------------|


G-----------------------------------------------|
D-----------------------------------------------| (6x)
A--------1-1------------4-4---------------------|
E--1--1-1--------4--4-4-------------------------|


G-----------------------------------------------|
D-----------------------------------------------| (2x)
A-------------3-3-3-3-1-1-----------------------|
E--1-1-1-1-2-2-----------4-4--------------------|


G-----------------------------------------------|
D-----------------------------------------------| (4x)
A--------1-1------------4-4---------------------|
E--1--1-1--------4--4-4-------------------------|


G-----------------------------------------------|
D-----------------------------------------------| (10x)
A------1-1-1-1-----------4-4-4-4----------------|
E-1-1-1-1-----------4-4-4-4---------------------|


G-----------------------------------------------|
D-----------------------------------------------| (10x)
A--------1-1------------4-4---------------------|
E--1--1-1--------4--4-4-------------------------|
00:00 / 00:00
Otros videos de esta canción
Repetir
Otros videos de esta canción
Composición de Dave Grohl / Krist Novoselic / Kurt Cobain
Colaboración y revisión:
  • Wesley Bruno
73 exhibiciones
00:00 / 00:00
OK