Cifra Club

Smells Like Teen Spirit

Nirvana

Tab de bajo: Versão 9
G-----------------------------------------------
D-----------------------------------------------
A-4-4---------------1-1---------------4-4-------
E------1--1-1--------------3/4--4-4--------0----

G-----------------------------------------------
D-----------------------------------------------
A--------------1-1---------------4-4------------
E-1--1-1--------------3/4--4-4--------0---------
00:00 / 00:00
Otros videos de esta canción
Repetir
Otros videos de esta canción
Composición de Dave Grohl / Krist Novoselic / Kurt Cobain
Colaboración y revisión:
  • kaique naccio
17 exhibiciones
00:00 / 00:00
OK