Cifra Club

Son Of A Gun

Nirvana

Bass tab: Principal
Intro and also played under all the verses
G----------------------------|---------------------------||
D----------------------------|---------------------------||
A----------------7--7--7--7--|--5-----5--5--7--7--7--7---||
E----5-----5--5--------------|---------------------------||

     Chorus
G-----------------------------|--------------------------|
D-----5--5--5--5--5--5--5--0--|--------------------------|
A-----------------------------|--3-----3--3--3--3--3--4--|
E-----------------------------|--------------------------|

G--------------------------|--------------------------|
D-----------------3--------|--------------------------|
A--5-----3--4--5-----5--0--|--3--3--3--3--3--3--2--0--|
E--------------------------|--------------------------|

G---------------------------||
D---------------------------||
A-----------------------0---||
E--3-----3--3--3--3--3------||

G----------------------------|
D-*--------------------------|
A-*--------------------------|
E----3-----3--3--3--3--3--3--|

                  (2 times)
G---------------------------||---------------------------|
D---------------------------||---------------------------|
A--5--5--5--5--5--5--5--5---||---------------------------|
E---------------------------||---5-----5--5--5--5--5--5--|

                   (2 times)
G---------------------------||
D---------------------------||
A--7--7--7--7--7--7--7--7---||
E---------------------------||
00:00 / 00:00
Other videos of this song
Repeat
Other videos of this song
Composed by Eugene Kelly / Frances McKee
Collaboration and Review:
  • thyago
26 views
00:00 / 00:00
OK